Oasis – Turn Up the Sun

шрифт
Print this page
2021-01-08 Oasis – Turn Up the Sun
Capo 2nd FRET
 
Intro:
E|-----------------------------------------------------|
B|-1-0-1-0-----------------------------------------0---|
G|-----2---0-2-0-3-2-0-3-2-0--2-0-2-0--------0-2-1-2---|
D|-------------------------3-0--3---4-2-0-3----------3-|
A|-----------------------------------------------------|
E|-----------------------------------------------------|

Where is pick bass notes as follows: 
Am    e---2--3
Dsus2 B--2--3

Am
I carry madness everywhere
I go Over the border and back to the snow 
Dsus2
So if you see me and I look right through ,
you shouldn't take it as a reflection on you 

F G Dsus2
Come on, turn up the sun. Turn it up for everyone

Am
Love one another, love one another
Am
The boys in the bubble they wanna be free.
They got so blind that they cannot see
Dsus2
But I'm not your keeper I don't have a key.
I got a piano, I can't find the 'C'

F G Dsus2
Come on, turn up the sun. Turn it up for everyone

Am
Love one another, love one another

Outro:
E|----------0-1-0------------------------0-------------|
B|--1-0-1--3-----3-1-3-1-0--1---0-1-0-1-3-3-1-0-1-0----|
G|-------------------------2-----------------------2-0-|
D|-----------------------------------------------------|
A|-----------------------------------------------------|
E|-----------------------------------------------------|

E|-------------------------------------------------------|
B|---------3-4-3--------------------------3--------------|
G|--3-2-3-5-----5-3-5-3-2--0-3---2-3-2-3-5-5-3-2-3-2--0--|
D|-----------------------------------------------------3-|
A|-------------------------------------------------------|
E|-------------------------------------------------------|
Am
E|---0--------0---------------------------------------0-|
B|------1-0---------------------------------0---1-----1-|
G|-2--------2----0--------------0-2---1---2-----------2-|
D|-----------------4-2-0--2-3-------------------------2-|
A|----------------------------------------------------0-|
E|------------------------------------------------------|

Oasis - Turn Up the Sun аккорды

guitar chord Am
guitar chord F
guitar chord G
guitar chord Dsus2

Разбор Oasis - Turn Up the Sun на гитаре

1 Звезда2 Звезды3 Звезды4 Звезды5 Звезд (Пока оценок нет)
Загрузка...

Добавить комментарий

Ваш адрес email не будет опубликован. Обязательные поля помечены *