Oasis – Listen Up

шрифт
Print this page
2021-02-23 Oasis – Listen Up
Intro
-----
F#m A E D A
e-----------0--------!-----------------------------0-------------------------
B---------0---0------!--------0--------0-------0-----3----------0-----0------
G-------2-------2----!------2--------2-----------------2----------2-----2----
D-----4-----------4--!----4--------2-------------0-------0----2-----2-----2--
A---4----------------!--4--------0-------------------------0-----------------
E--------------------!-----------------------0-------------------------------
F#m A E D A
e-----------------------------------2-0---------------------------------
B--0------------0-------0-------0-------3-2------0-----0-----0----------
G----2--------2-------2---------------------2------2-----2-----2--------
D------2----4-------2-------------0------------2-----2-----2-----2------
A---------4-------0-------------------------0---------------------------
E-----------------------------0-----------------------------------------
 
[NOTE: The Intro minus the part before the exclamation points above is
what guitars 1 & 2 play during all the verses of the song. Listed below
over the lyrics will be only the chords played by guitar 1, but the part
played by guitar 2 is also being played in the song.]

[ANOTHER NOTE: After guitar 1 has played each chord progression above
(F#m A E D A), this is how the second A in the chord progression is
played by guitar 1:]

A
e--------------------------------------
B--2---3-3-2-3-2---3-3-3-3-2-----------
G--2---2-2-2-2-2---2-2-2-2-2-----------
D--2---2-2-2-2-2---2-2-2-2-2-----------
A--0---0-0-0-0-0---0-0-0-0-0-----------
E--------------------------------------
while guitar 2 is playing:
Asus2
e--------------------------------------
B--------0-----0-----0-----------------
G----------2-----2-----2---------------
D------2-----2-----2-----2-------------
A--0-----------------------------------
E--------------------------------------

Verse 1
-------
F#m A E D A
Listen up, what's the time, said today I'm gonna speak my mind
F#m A E D A
Take me up to the top of the world I wanna see my crime
F#m A E D A
Day by day there's a man in a suit, he's gonna make you pay
F#m A E D A
For the thoughts that you think and the words they won't let you say

Pre-Chorus
----------
F#m Faug A/E B7
One fine day, gonna leave you all behind
Bm7 D E
It wouldn't be so bad if I had time

Chorus
------
D A/C# E
Sail me down the river alone
D A/C# F#m
I've been tryin' to find my way back home
D A/C#
But I don't believe in magic
D A/C#
Life is automatic
B7 D A (pick "A" like guitar 2 in verse)
But I don't don't mind being on my own
B7 D A A
No I don't mind being on my own

Tab for high pitched guitar in background of Chorus:
You'l hear this little riff repeating again and again in the Chorus
background with some sort of weird guitar effect used on it:

e--12-------------------12----------------------
B-----14-12-14-12----------14-12-14-12----------
G-----------------14-11----------------14-11----

[REPEAT VERSE 1]

[PRE-Chorus]

[Chorus]

Guitar Solo (played along with verse chords):

F#m A E D A
e------------------------------------------------------
B-----------------12--14--12--14--14b15--14b15r14--10--
G---11--11--11--9-------------------------------------- (repeat 4 times)
D------------------------------------------------------

Solo continued (now using chords for pre-Chorus):
F#m Faug
e-----------------------------------------------------------------------
B--12--10--12--12b13r12--10h12p10------10--12--12b13r12--10h12p10-------
G----------------------------------11------------------------------11---
D-----------------------------------------------------------------------
A/E B7
e-------------------------------------------------------------------
B--10--12--12b13r12--10h12p10------10--12--12b13--12b13--12--10-----
G------------------------------11-----------------------------------
D-------------------------------------------------------------------
Bm7 D
e-------------------------------------------------------------------
B--12--12b13r12--10h12p10------10--12--12b13r12--10h12p10------10---
G--------------------------11------------------------------11-------
D-------------------------------------------------------------------
E
e--------------------------------------
B------10-----------------10------10---
G-s11------9b11--9----11------11-------
D--------------------------------------

[Chorus]

Oasis - Listen Up аккорды

guitar chord A
guitar chord D
guitar chord E
guitar chord B7
guitar chord Bm7
guitar chord F#m

Разбор Oasis - Listen Up на гитаре

1 Звезда2 Звезды3 Звезды4 Звезды5 Звезд (Пока оценок нет)
Загрузка...

Добавить комментарий

Ваш адрес email не будет опубликован. Обязательные поля помечены *