Oasis – Girl In The Dirty Shirt

шрифт
Print this page
guitar chord Am
guitar chord D
guitar chord Em
guitar chord G
guitar chord B7
guitar chord Cadd9
2020-09-09 Oasis – Girl In The Dirty Shirt
Cadd9
e--0-----------0------------0--------
B-----3---3--------3---3--------3----
G-----------0------------0-----------
D------------------------------------
A------------------------------------
E------------------------------------

Intro:
Em G C9 Em G C9
Em G C9 G D Cadd9

Verse 1:
Em G C9
If I may be so bold could I just say something
G D Cadd9
Come and make me my day
Em G C9
The clouds around your soul don't gather there for nothing
G D Cadd9
But I can chase them all away

Verse 2:
Why'd you need a reason for to feel happy
Or be shining for the rest of the world
Give me just a smile and would you make it snappy
Get your together girl

Pre-Chorus:
D B7 Em D Cadd9
You got a feeling lost inside it just won't let you go
e------------10~~--
B----10~bbb12------
G------------------
D------------------
A------------------
E------------------
D B7 Em D Cadd9
Your life is sneaking up behind it just won't let you go
e----------10~~--
B--10~bbb12------
G----------------
D----------------
A----------------
E----------------
Em D Cadd9
No it just won't let you go
e------------10~~--
B----10~bbb12------
G------------------
D------------------
A------------------
E------------------
B7
What I'm trying to say...
e---------------------------------------------------------------------------
B---------------------------------------------------------------------------
G------------------7h8------------------7--7h8------------------------------
D----------------------9--7--9------7h9--------9--7--9--9>------------------
A-------------------------------7h9-----------------------------------------
E---------------------------------------------------------------------------

Chorus:
Gsus2 Csus2 Gsus2 Csus2
Is would you maybe, come dancing with me
e------------------------10>--------------------------10>-------------------
B-------------------10b12-----------------------10b12-----------------------
G---------------------------------------------------------------------------
D---------------------------------------------------------------------------
A---------------------------------------------------------------------------
E---------------------------------------------------------------------------

Gsus2 Csus2 Am Csus2
Cos' to me it doesn't matter if your hopes and dreams are shattered
e-------------------------------10>-----------------------------------------
B-------------------------10b12---------------------------------------------
G------------------------------------------12----12-14-14b15.5r14-12--12----
D------------------------------------12h14----14----------------------------
A---------------------------------------------------------------------------
E---------------------------------------------------------------------------

Gsus2 Csus2 Gsus2 Csus2
When you say something, you make me believe
e--------------------------10>--------------------------10>-----------------
B---------------------10b12------------------------10b12--------------------
G---------------------------------------------------------------------------
D---------------------------------------------------------------------------
A---------------------------------------------------------------------------
E---------------------------------------------------------------------------

Gsus2 Csus2
In the girl who wears the dirty shirt
e---------------------------------10>--
B----------------------------10b12-----
G--------------------------------------
D--------------------------------------
A--------------------------------------
E--------------------------------------

Am Csus2
She knows exactly what she's worth
e---------------------------------------------------------------------------
B---------------------------------------------------------------------------
G---------12----12-14-14b15.5r14-12-12--------------------------------------
D---12h14----14-------------------------------------------------------------
A---------------------------------------------------------------------------
E---------------------------------------------------------------------------

Am
Knows exactly what she's worth to me
e---------------------------------------------
B---------------------------------------------
G-------12----12-14-14b15.5~~~~r14p12---------
D-12h14----14-------------------------14~~~---
A---------------------------------------------
E---------------------------------------------

Em G C9 Em G C9
e-----------------------------------------------------------------------
B--------------------5------------------------------5-------------------
G----------------------3b3.5--------------------------3b3.5-------------
D-----------------------------5------------------------------5----------
A--------------------------------5--5h7-------------------------5--5h7--
E-----------------------------------------------------------------------

Em G C9 G D Cadd9
e---------------------------------------------------------------------------
B--------------------5-------5----------------------------------------------
G----------------------3b3.5---3b3.5----------------------------------------
D-------------------------------------5-------------------------------------
A---------------------------------------------------------------------------
E---------------------------------------------------------------------------

Verse 3:
Em G C9
If you ever find yourself inside a bubble You've
e-------------------
B---5-------5-------
G-----3b3.5---3b3.5-
D-------------------
A-------------------
E-------------------

G D Cadd9 Em G
Gotta find your own way home You can call me anytime
e---------------------------------------------------------------------------
B--------------------------------5------------------------------------------
G----------------------------------3b3.5------------------------------------
D-5---------------------------------------5---------------------------------
A--------------------------------------------5--5h7-------------------------
E---------------------------------------------------------------------------

C9 G D Cadd9
You're seeing double Now you know you're not alone
e---------------------------------------------------------------------------
B-------------5-------5-----------------------------------------------------
G---------------3b3.5---3b3.5-----------------------------------------------
D------------------------------5--------------------------------------------
A---------------------------------------------------------------------------
E---------------------------------------------------------------------------

Pre-Chorus (chords and fills exactly the same as first pre-Chorus)

You've got a feeling lost inside it just won't let you go
You're life is sneaking up behind it just won't let you go
No, it just won't let you go
What I'm trying to say....

Chorus 
(chords and fills same as first Chorus 
until end of 2nd time through)

Is would you maybe come dancing with me
Cos' to me it doesn't matter if your hopes and dreams are shattered
When you say something, you make me believe
In the girl who wears the dirty shirt, she knows exactly what she's worth

Would you maybe come dancing with me
Cos' to me it doesn't matter if your hopes and dreams are shattered
When you say something, you make me believe
In the girl who wears the dirty shirt,
Am Csus2
She knows exactly what she's worth
e---------------------------------------------------------------------------
B---------------------------------------------------------------------------
G---------12----12-14-14b15.5r14-12-12--------------------------------------
D---12h14----14-------------------------------------------------------------
A---------------------------------------------------------------------------
E---------------------------------------------------------------------------

Am Csus2
She knows exactly what she's worth
e--------------------------------------
B--------------------------------------
G---------12----12-14-14b15.5r14-12-12-
D---12h14----14------------------------
A--------------------------------------
E--------------------------------------

Gsus2 Csus2 Gsus2 Csus2 Gsus2
to me 
e---------------------------------------------------------------------------
B-------------------------------13--------------------------13--------------
G--14-12--14b15.5---------12h14-----12----------------12h14-----12--14b15.5-
D-------------------12h14---------------14>-----12h14-----------------------
A---------------------------------------------------------------------------
E---------------------------------------------------------------------------

Csus2 Am Csus2
she knows exactly what she's worth
e---------------------------------------------
B---------------------------------------------
G-------------12----12--14-14b15.5r14--12--12-
D-------12h14----14---------------------------
A---------------------------------------------
E---------------------------------------------

Gsus2 Csus2 Gsus2 Csus2 Gsus2
to me 
e---------------------------------------------------------------------------
B-------------------------------13--------------------------13--------------
G--14-12--14b15.5---------12h14-----12----------------12h14-----12--14b15.5-
D-------------------12h14---------------14>-----12h14-----------------------
A---------------------------------------------------------------------------
E---------------------------------------------------------------------------

Csus2 Am Csus2
she knows exactly what she's worth
e------------------------------------------------
B----------------------------------15------------
G-------------12----12--14-14b15.5---b15.5r14-12-
D-------12h14----14------------------------------
A------------------------------------------------
E------------------------------------------------

Gsus2 Csus2 Gsus2 Csus2 Gsus2
to me 
e---------------------------------------------------------------------------
B-------------------------------13--------------------------13--------------
G--14-12--14b15.5---------12h14-----12----------------12h14-----12--14b15.5-
D-------------------12h14---------------14>-----12h14-----------------------
A---------------------------------------------------------------------------
E---------------------------------------------------------------------------

Csus2 Am Csus2
she knows exactly what she's worth
e------------------------------------------------
B------------------------------------------------
G-------------12----12--14-14b15.5~~~~~~~~~~~r14-
D-------12h14----14------------------------------
A------------------------------------------------
E------------------------------------------------

G C9 G C9 G C9 G C9
to me Now I see Now I see Now I see
e-----
B-----
G--12-
D-----
A-----
E-----

G C9

for a little variation, 
try throwing in this little fill the organ plays
with your guitar in one of the sections marked with a ""
e---------------------------
B-------------13--11h12-----
G-------12h14-----12----12>-
D-12h14---------------------
A---------------------------
E---------------------------

Oasis - Girl In The Dirty Shirt аккорды

guitar chord Am
guitar chord D
guitar chord Em
guitar chord G
guitar chord B7
guitar chord Cadd9

Разбор Oasis - Girl In The Dirty Shirt на гитаре

1 Звезда2 Звезды3 Звезды4 Звезды5 Звезд (Пока оценок нет)
Загрузка...

Добавить комментарий

Ваш адрес email не будет опубликован. Обязательные поля помечены *