Oasis – A Bell Will Ring

шрифт
Print this page
2020-12-05 Oasis – A Bell Will Ring
Intro:
E|---------------------------------------------------------------|
B|---------------------------------------------------------------|
G|--------9-9--9/11-9-8-8--8h9-------------------------------9-9-|
D|----11------------------------11----11-11-11-11---------11-----|
A|--9----------------------------------9--9--9--9-----7/9--------|
E|---------------------------------------------------------------|

E|-------------------------------------------------------------------|
B|-------------------------------------------------------------------|
G|-9/11-9-8-8--8h9---------------------------------------------------|
D|------------------11----11-11-11---7-7-7--6-6-6--11-11-11-11-11-11-|
A|-------------------------9--9--9---9-9-9--9-9-9---9--9--9--9--9--9-|
E|-------------------------------------------------------------------|

Intro: E A E E A E E

E
A little space, a little time
Dsus2 E
see what it can do
E
A little faith, a piece of mind
Dsus2 E
see what passes things through

Dsus2 Asus2
The sun will shine on you again
E Dsus2
A bell will ring inside your head
A E
And all will be brand new

E
Come along, come on in
Dsus2 E
Here's something that you'll know
E
The worlds as wide as your life is thin
Dsus2 E
So entertain your goals

Dsus2 Asus2
The sun will shine on you again
E Dsus2
A bell will ring inside your head
a E
And all will be brand new
A E
All will be brand new

E
i can tell you what you want to hear
Dsus2 E
i've been here once before
E
you put me through my empty night
Dsus E
sleepless on your floor

Dsus2 Asus2
the sun will shine on you again
E Dsus2
a bell will ring inside your head

A E
and all will be brand new
A E
all will be brand new
A E | A E 3x

Oasis - A Bell Will Ring аккорды

guitar chord A
guitar chord E
guitar chord Dsus2

Разбор Oasis - A Bell Will Ring на гитаре

1 Звезда2 Звезды3 Звезды4 Звезды5 Звезд (Пока оценок нет)
Загрузка...

Добавить комментарий

Ваш адрес email не будет опубликован. Обязательные поля помечены *