N.R.M. – Фабрыка

шрифт
Print this page
2021-03-18 N.R.M. – Фабрыка
Уступ: x2
1:-5-5-5-5-5-5-5-5-6-6-6-6-6-6-6-6-5-5-5-5-5-5-5-5-----------------
2:-------------------------------------------------5---------------
3:---------------------------------------------------7-7-7-7-7-7-7-

1:-5-5-5-5-5-5-5-5-6-6-6-6-6-6-6-6---------------------------------
2:---------------------------------5-----6---------5-----6---------
3:-----------------------------------7~~---7~~~~~~---7~~----7~~~~~~

Gm          A#m          Am               F 
і вось гэты новы дзень – дзень як дзень, з ланцугу. 
Gm          A#m          Am               F 
а я ў вакно глядзеў празь імжу, праз смугу. 
Gm          A#m          Am       F 
выбіраеш? выбірай каляровы небакрай. 
Gm          A#m          Am           F 
выбіраеш? выбірай дзіўны край, індакітай. 

     D5      Fm                   A#m  Gm F E    
           толькі фабрыка ў маім акне 
     D5      Fm                   A#m  Gm F E    
           будзе жыць у летаргічным сьне 
     D5      Fm                   A#m  Gm F E    
           толькі фабрыка ў маім вакне 
     D5      Fm                   A#m  Cm
           не прачнецца нават па вясьне 

Уступ:
1:-5-5-5-5-5-5-5-5-6-6-6-6-6-6-6-6-5-5-5-5-5-5-5-5-----------------
2:-------------------------------------------------5---------------
3:---------------------------------------------------7-7-7-7-7-7-7-

1:-5-5-5-5-5-5-5-5-6-6-6-6-6-6-6-6---------------------------------
2:---------------------------------5-----6---------5-----6---------
3:-----------------------------------7~~---7~~~~~~---7~~----7~~~~~~

Gm          A#m          Am               F      
прыйшоў гэты новы дзень і згарэў, не сагрэў. 
Gm          A#m          Am             F 
і ты ў гэты новы дзень пасталеў, пастарэў. 
Gm          A#m          Am             F 
робіш выгляд? я раблю, што люблю ўсю зямлю. 
Gm          A#m          Am               F 
добры вечар, добры дзень... нібы колы па вадзе... 

     D5      Fm                   A#m  Gm F E    
           толькі фабрыка ў маім акне 
     D5      Fm                   A#m  Gm F E    
           будзе жыць у летаргічным сьне 
     D5      Fm                   A#m  Gm F E    
           толькі фабрыка ў маім вакне 
     D5      Fm                   A#m Cm 
           не прачнецца нават па вясьне 
     
Уступ: x2
1:-5-5-5-5-5-5-5-5-6-6-6-6-6-6-6-6-5-5-5-5-5-5-5-5-----------------
2:-------------------------------------------------5---------------
3:---------------------------------------------------7-7-7-7-7-7-7-

1:-5-5-5-5-5-5-5-5-6-6-6-6-6-6-6-6---------------------------------
2:---------------------------------5-----6---------5-----6---------
3:-----------------------------------7~~---7~~~~~~---7~~----7~~~~~~

Gm          A#m          Am               F 
прыйшоў невядома хто, шэры твар, бляклы твар, 
Gm          A#m          Am    F 
сказаў, што цяпер ён тут гаспадар... 

Gm          A#m          Am               F 
і можна ўсё забыць, есьці й піць, сноў ня сьніць. 
Gm          A#m          Am         F 
і можна набыць віно і глядзець у вакно. 
Gm          A#m          Am             F 
разумееш? зразумей, што ня згас яшчэ агмень, 
Gm          A#m          Am               F 
а калі агмень ня згас, нам згасаць яшчэ ня час. 

     D5      Fm                   A#m  Gm F E    
           толькі фабрыка ў маім акне 
     D5      Fm                   A#m  Gm F E    
           будзе жыць у летаргічным сьне 
     D5      Fm                   A#m  Gm F E    
           толькі фабрыка ў маім вакне 
     D5      Fm                   A#m  Cm 
           не прачнецца нават па вясьнеq

N.R.M. - Фабрыка аккорды

guitar chord Am
guitar chord Cm
guitar chord E
guitar chord F
guitar chord Fm
guitar chord Gm
guitar chord D5
guitar chord A#m

Разбор N.R.M. - Фабрыка на гитаре

1 Звезда2 Звезды3 Звезды4 Звезды5 Звезд (Пока оценок нет)
Загрузка...

Добавить комментарий

Ваш адрес email не будет опубликован. Обязательные поля помечены *