Наутилус Помпилиус – Кто еще

2019-09-07 Наутилус Помпилиус – Кто еще
Intro: Em9 Am7 | Em9 D7

   Em9           Am7     Em9           D7
2:|-5/7-5--5/7-5-7-5-------8-|-5/7-5--5/7-5-7-5---------2/3-1--2/3-1--|

Em9                             Am7
Если ты хочешь любить меня полюби мою тень
    Em9                                 D7
Открой для нее свою дверь, впусти ее в дом
 Em9                             Am7
Тонкая, длинная, черная тварь прилипла к моим ногам
  Em9                             D7
Она ненавидит свет, но без света ее нет

C  Am       Em  Em9+  C         Am     D
   Если ты хочешь,      сделай белой мою тень
C  Am       Em  Em9+  C         Am     D   B7
   Если ты можешь,      сделай белой мою тень

1:---15-10-8----------------------10-8--14------|
2:|5/7-5--5/7575-------8-7/85--5/7-5--5/7575----------2/3-1|
3:---12-----------------------------------------|
4:--------------------------------12-10---------|

  Em9 Em   Em9           Am7
Кто же, кто еще кроме тебя
  Em9 Em   Em9   Em      D  D7
Кто же, кто еще если не ты

1:|----------------------------------|------------5-3-2-0--5/7-5-0-5/7-5-3-2-|
2:|0-5/7-0-1-5/7-0-5/7-5-0/3-1-0/3-1-|-0-5/7-5-0-5-------0-1-----1-----------|

Em9                             Am7
Если ты хочешь любить меня, приготовь для нее кров
    Em9                              D7
Слова ее - все ложь, но это - мои слова
Em9                             Am7
От долгих ночных бесед под утро болит голова
    Em9                                 D7
Слезы падают в чай, но чай нам горек без слез

C  Am       Em  Em9+  C         Am     D
   Если ты хочешь,      сделай белой мою тень
C  Am       Em  Em9+  C         Am     D    B7
   Если ты можешь,      сделай белой мою тень

2:|-5/7-5--5/7-5-7-5-------8-|-5/7-5--5/7-5-7-5---------2/3-1--2/3-1--|

 Em9 Em   Em9            Am7
Кто же, кто еще кроме тебя
  Em9 Em   Em9   Em       D D7
Кто же, кто еще если не ты

Соло:
1:|-2053872-0-20-53-10-8-|-7532357207-12-75320-----------|
2:|0---------0--0------------------------------32/3~-3/53|

1:|--320-023567-12-14-15-14-12-10-875320-----0-7-14-12-1710-10-12-10-11-12-|
2:|10---4-------------------------------3-1-0------------------------------|

1:|8-10-85/7-1511/1412/1912852-0-23578-10-12---14/1714-10/1310--|

1:|98-08-8/108-7-0767---15---058/15-14-1210/11/1512---|
2:|--4-----------4----------1-------------------------|

 Em9 Em   Em9            Am7
Кто же, кто еще кроме тебя
  Em9 Em   Em9   Em       D  D7
Кто же, кто еще если не ты

2:|5/7-5--5/7575/85/8--------5/7-5--5/7575---2/3-1-2/3-1--0/7|   

Наутилус Помпилиус - Кто еще аккорды

guitar chord D
guitar chord Em
guitar chord Am7
guitar chord D7

Разбор Наутилус Помпилиус - Кто еще на гитаре

1 Звезда2 Звезды3 Звезды4 Звезды5 Звезд (Пока оценок нет)
Загрузка...
Загрузка...