My Chemical Romance – Summertime

шрифт
Print this page
2021-01-26 My Chemical Romance – Summertime
Intro:
Guitar 1: D5 (palm mute)

Guitar 2:
E-------------------------------------------------------------------------|
B--10-7x6-8-8-8-8-8-10-7-7-7-7-7/2-2-2-2h3-3-3-3-3-8h10-7-7-7-7-7-7-10x14-|
G-------------------------------------------------------------------------|
D-------------------------------------------------------------------------|
A-------------------------------------------------------------------------|
E-------------------------------------------------------------------------|

Guitar:
   D     A   Em    G
E---------------------------------|
B---3--8-7-2-8-7--0--8-7-10-8-7-5-|
G---------------------------------|
D---------------------------------|
A---------------------------------|
E---------------------------------|

              D
When the lights go out
               A
Will you take me with you
                Em
And carry all this broken bone
               G
Through stitches and crows
              D
Highways I called home
               A
Something I can't go to now
                    Em
Until you pick me off the ground
Em
With brick in hand, your lip gloss smile
       G
You're scraped up knees

G       A       D         G
And if you stay I will lead away your mind
G    A             Bm
Or until your heart explodes out
    G       A       D           G
Until we find our way in the dark and out of heart
      G        A
You can run away with me
           D
Any time you want

               A
Terrified of what I'd be
                Em
As a kid from what I've seen
                G
Every single day when people shot
              D
And put the pieces back together
              A
Just to smash them down
               Em
Turn my headphones up real loud
              G
I think I need them now
G
'Cause you suck the noise out

Refrain:
G       A        D         G
And if you stay I will lead away your mind
    A          Bm
Or until my heart explodes out
G       A       D          G
Until we find our way in the dark and out of heart
               A
You can run away with me
         D
Anytime you want

D Dsus2 D Dsus6 D Dsus2 D A

A
Anytime you want

 D
E-10----9----7----9----|
B---10----10---10---10-|
G----------------------|
D----------------------|
A----------------------|
E----------------------|

A
Anytime you want

Guitar Solo:  
D          G             A             D          G
E------------------------------------------------5------|
B--10-10-10-10-3-3-10-10-10-10-2-2-5-5-5-5/7-7-7--------|
G-------------------------------------------------8-8/6-|
D-------------------------------------------------------|
A-------------------------------------------------------|
E-------------------------------------------------------|

 G                A           Bm         A
E---------------------------------------------5-7-7-9-9h10-9-7-9-9h10-|
B--10-10-10-10-3-3-10-10-10-10-2-2-5-5-5-5/7-7------------------------|
G---------------------------------------------------------------------|
D---------------------------------------------------------------------|
A---------------------------------------------------------------------|
E---------------------------------------------------------------------|

D              G              A          D
E--9-5-12-12-12-12/14-14-14-9-9/7--7-9-9h10-9-5-9-9h10-9-7-9-10-|
B---------------------------------------------------------------|
G---------------------------------------------------------------|
D---------------------------------------------------------------|
A---------------------------------------------------------------|
E---------------------------------------------------------------|

 D
Don't walk away (x2)
        G
Don't walk away
         A
Cause if you stay
      D          G
I will lead the way alright

  A          Bm
Until my heart explodes out
 G      A        D           G
Until we find our way in the dark and out of heart
                A
You can run away with me
      Bm
You can run if you want
      G         A
You can run away with me

        D
Anytime you want

My Chemical Romance - Summertime аккорды

guitar chord A
guitar chord Bm
guitar chord D
guitar chord Em
guitar chord G
guitar chord Dsus2

Разбор My Chemical Romance - Summertime на гитаре

1 Звезда2 Звезды3 Звезды4 Звезды5 Звезд (Пока оценок нет)
Загрузка...

Добавить комментарий

Ваш адрес email не будет опубликован. Обязательные поля помечены *