My Chemical Romance – Save Yourself Ill Hold Them Back

шрифт
Print this page
guitar chord E
2020-10-18 My Chemical Romance – Save Yourself Ill Hold Them Back
SOLO

    Q       S    S  Q      S  S   Q
E||-------------------------------------|
B||-------------------------------------|
G||--14b-------------------------14b----|
D||---------14p-12h-14----12h-14--------|
A||-------------------------------------|
E||-------------------------------------|


   S   S  Q      S S   Q      S   S   E
-----------------------------------------|
-----------------------------------------|
----------------------14b----14p-12h-14--|
--14p-12h-14----12-14--------------------|
-----------------------------------------|
-----------------------------------------|


  Q      E   Q      E    E   S   S
------------------------------------|
------------------------------------|
--12----12--14b----14b--16--14p-12h-|
------------------------------------|
------------------------------------|
------------------------------------|


  E    Q     S  S  E  S   S    S   S  E
-----------------------------------------|
-----------------------------------------|
--14--12---------------------------------|
------------14-12-14---------------------|
----------------------14h-17p-14p-12-10--|
-----------------------------------------|


   E    E    E       E    E    E  
--12---12---12------14---14---14------|
--15b--15b--15b-----17b--17b--17b-----|
--------------------------------------|
--------------------------------------|
--------------------------------------|
--------------------------------------|


   E    E    E       E    E    E
--15---15---15------10---10---10------|
--18b--18b--18b-----13b--13b--13b-----|
--------------------------------------|
--------------------------------------|
--------------------------------------|
--------------------------------------|


   Q      E   S   S   S   S   S  S   S  S  S
--15b----15--14h-15p-14p-12h-14p-12----12----|
------------------------------------15----15-|
---------------------------------------------|
---------------------------------------------|
---------------------------------------------|
---------------------------------------------|


  Q      E   E   H
--------12--15--12~--------||
--15-----------------------||
---------------------------||
---------------------------||
---------------------------||
---------------------------||

My Chemical Romance - Save Yourself Ill Hold Them Back аккорды

guitar chord E

Разбор My Chemical Romance - Save Yourself Ill Hold Them Back на гитаре

1 Звезда2 Звезды3 Звезды4 Звезды5 Звезд (Пока оценок нет)
Загрузка...

Добавить комментарий

Ваш адрес email не будет опубликован. Обязательные поля помечены *