My Chemical Romance – Our Lady Of Sorrows

шрифт
Print this page
2020-11-27 My Chemical Romance – Our Lady Of Sorrows
Tabbed by: Flurgon
Tuning: Standard
 
Intro:
E|---------------------------------------------------|
B|---------------------------------------------------|
G|---------------------------------------------------|
D|-11----------------------11-10---------------------|
A|-11----------------------11-10---------------------|
E|--9--9-9-9--9-9-9--9-9----9--8--8-8-8--8-8-8--8-8--|

E|---------------------------------------------------|
B|---------------------------------------------------|
G|---------------------------------------------------|
D|-7-----------------------7--10---------------------|
A|-7-----------------------7--10---------------------|
E|-5---5-5-5--5-5-5--5-5---5---8--8-8-8--8-8-8--8-8--|

E|---------------------------------------------------|
B|---------------------------------------------------|
G|---------------------------------------------------|
D|-11------------------------10----------------------|
A|-11------------------------10----------------------|
E|--9--9-9-9--9-9-9--9-9-9----8--8-8-8--8-8-8--8-8-8-|

E|---------------------------------------------------|
B|---------------------------------------------------|
G|---------------------------------------------------|
D|---------------------------------------------------|
A|-7------------------------10-10-10-10-10-10-10-10--|
E|-5---5-5-5--5-5-5--5-5-5---8--8--8--8--8--8--8--8--|

Verse 1:
C#               C
We could be perfect one last night
   A              C         C#
And die like star-crossed lovers when we fight
       C         
And we can settle this affair
         A           C
If you would shed your yellow take my hand
   C#             C       A       C
And then we'll solve the mystery of laceration gravity
   C#       C         A        C
This riddle of revenge please understand it has to be this way 

Chorus:
C# G# A F#     C#
Stand up fucking tall
       G#  A     F#
Don't let them see your back
C# G# A F#     C#
Take my fucking hand
   G#   A   F#
and never be afraid again

Verse 2:
C#C     A           C
We've only got one chance to put this at an end
C#C       A          C
and cross the patron saint of switchblade fights
   C#         C         A              C
You said we're not celebrities, we spark and fade, they die by threes
   C#        C           A          C
I'll make you understand and you can trade me for an apparition

Chorus:
C# G# A F#     C#
Stand up fucking tall
       G#  A     F#
Don't let them see your back
C# G# A F#     C#
Take my fucking hand
   G#      
and never 

Bridge,solo:
Trust, you said
Who put the words in your head
Oh how wrong we were to think
That immortality meant never dying
Stand
Take my fucking hand
Take my fucking...

Chorus:
C# G# A F#     C#
Stand up fucking tall
       G#  A     F#
Don't let them see your back
C# G# A F#     C#
Take my fucking hand
   G#   A   F#
and never be afraid again
C#  G# A   F# C#   G# A  F#  C#
Just because my hands around your throat!

My Chemical Romance - Our Lady Of Sorrows аккорды

guitar chord A
guitar chord C
guitar chord C#
guitar chord G#
guitar chord F#

Разбор My Chemical Romance - Our Lady Of Sorrows на гитаре

1 Звезда2 Звезды3 Звезды4 Звезды5 Звезд (Пока оценок нет)
Загрузка...

Добавить комментарий

Ваш адрес email не будет опубликован. Обязательные поля помечены *