My Chemical Romance – Give ‘Em Hell Kid

шрифт
Print this page
2020-10-28 My Chemical Romance – Give ‘Em Hell Kid
Cool bass Intro:
G|-------------------|
D|-------------------|
A|-7777--------------| x2
E|-----777788885555--|

Intro:
  E   B   C     A
e|--------------------------|
B|--------------------------|
G|-9999---------------------|
D|-9999-9999-10101010-7777--|
A|-7777-9999-10101010-7777--|
E|------7777--8-8-8-8-5555--|

Verse (0:14):
  E   B   C     A   E   B
e|------------------------------------|
B|------------------------------------|
G|-9999--------------------9999-------|
D|-9999-9999-10101010-7777-9999-9999--|
A|-7777-9999-10101010-7777-7777-9999--|
E|------7777--8-8-8-8-5555------7777--|

  C          D
e|-------------------|
B|-------------------|
G|-------------------|
D|10101010-12121212--|
A|10101010-12121212--|
E|-8-8-8-8-10101010--|

Chorus: let these notes ring (0:24)
  G    F#  E   Em  G   D   E   C
e|---------------------------------------------|
B|---------------------------------------------|
G|12---1211----9----8--------------------------|
D|12---1211----9----9---------7----9----5------|
A|10---10-9----7----9----5----5----7----3------|
E|-----------------------3---------------------|

Repeat verse
Repeat Chorus

Interlude: (1:13)
  C           D          B
e|--------------------------------------------|
B|--------------------------------------------|
G|--------------------------------------------|
D|--------------------------------------------|
A|1010101010101010-1212121212121212-99999999--|
E|-8-8-8-8-8-8-8-8-1010101010101010-77777777--|

  E       A     F#    G
e|---------------------------------|
B|---------------------------------|
G|---------------------------------|
D|-999911111111141414141111111112--| x2
A|-7777-9-9-9-912121212-9-9-9-910--|
E|---------------------------------|

Repeat Chorus

(2:05)
  E     E     E     E
e|--------------------------------------|
B|--------------------------------------|
G|-99999999-99999999-99999999-99999999--|
D|-99999999-99999999-99999999-99999999--|
A|-77777777-77777777-77777777-77777777--|
E|--------------------------------------|

My Chemical Romance - Give 'Em Hell Kid аккорды

guitar chord A
guitar chord B
guitar chord C
guitar chord D
guitar chord E
guitar chord Em
guitar chord G
guitar chord F#

Разбор My Chemical Romance - Give 'Em Hell Kid на гитаре

1 Звезда2 Звезды3 Звезды4 Звезды5 Звезд (Пока оценок нет)
Загрузка...

Добавить комментарий

Ваш адрес email не будет опубликован. Обязательные поля помечены *