My Chemical Romance – All I Want For Christmas Is You

шрифт
Print this page
2020-12-25 My Chemical Romance – All I Want For Christmas Is You
Intro: (Piano)
   G  B  C  Cm  D  E Em  D E  A  D
e|--3---2---0---3----2---0--0----2--0---0---2~------------|
B|--0---4---1---1----3---0--0----3--0---2---3~------------|
G|--0---4---0---0----2---1--0----2--1---2---2~------------|
D|--0---4---2---1----0---2--2----0--2---2---0~------------|
A|--2-------3--------0---2--2----0--2---0---0~------------|
E|--3--------------------0--0-------0---------------------|

e|----------14-15-14-------------12-15-14~----|
B|----12-15----------15-12----13--------------|
G|--12---------------------14-----------------|
D|--------------------------------------------|
A|--------------------------------------------|
E|--------------------------------------------|

Verse 1:
Guitar 1:
e|-------------------------|
B|-------------------------|
G|---------5-----8---------| x2
D|--5------5-x8--8-x8------|
A|--5-x16--3-----6---------|
E|--3----------------------|

Guitar 2:
e|------------------------------------|
B|------------------------------------|
G|----------------------4------4------| x2
D|-----5------------5-7---5-7----5----|
A|--5----5-3--5-2---------------------|
E|------------------------------------|

Chorus: 
Guitar 1:
e|-----------------------------------------------------------------|
B|-----------------------------------------------------------------|
G|-----------------8----7----9---------7-------------------7777----|
D|--5----4----2----8-x2-7-x4-9-x4-7----7-x4-5----2----7----7777----|
A|--5-x6-4-x2-2-x6-6----5----7----7-x4-5----5-x4-2-x4-7-x4-5555----|
E|--3----2----0-------------------5---------3----0----5------------|
 
Guitar 2:
e|------------------------------------------------------------------|
B|------------------------------------------------------------------|
G|--12--16----------12---16--14-12-11-12-14--12--16-----------------|
D|--x---x---14--13--x----x---x--x--x--x--x---x---x---14--12121212---|
A|--10--14--x---x---10---14--12-10-9--10-12--10--14--x---x-x-x-x----|
E|----------12--11-----------------------------------12--10101010---|



Verse 2: 
Guitar 1:     1st time  2nd time
e|--------------||---------|----------|
B|-|separated|--||separated|----------|
G|---------5----||-8-------|--8-8-8~--| x2
D|--5------5-x8-||-8-x8----|--6-8-8~--|
A|--5-x16--3----||-6-------|--6-6-6~--|
E|--3-----------||---------|----------|
 
Guitar 2:
e|--------------------------------------------------|
B|--------------------------------------------------|
G|--4----------4-----5-4-----------------------4----|
D|----7-5-4-5----7-5------77-95-77-95----5-7--------|
A|---------------------------------------7----------|
E|--------------------------------------------------|

e|--------------------------------------|
B|--------------------------------------|
G|--------------------------------------|
D|--5------------77-95-77-95--7-9-10----|
A|----5-3-52----------------------------|
E|--------------------------------------|

Chorus: 
Guitar 1:
e|----------------------------------------------------------------|
B|----------------------------------------------------------------|
G|-----------------8----7----9---------7-------------------7778---|
D|--5----4----2----8-x2-7-x4-9-x4-7----7-x4-5----2----7----7778---|
A|--5-x6-4-x2-2-x6-6----5----7???---7-x4-5----5-x4-2-x4-7-x4-5556---|
E|--3----2----0-------------------5---------3----0----5-----------|
 
Guitar 2:
e|------------------------------------------------------------------|
B|------------------------------------------------------------------|
G|--12--16----------12---16--14-12-11-12-14--12--16-----------------|
D|--x---x---14--13--x----x---x--x--x--x--x---x---x---14???-12121213---|
A|--10--14--x---x---10---14--12-10-9--10-12--10--14--x---x-x-x-x----|
E|----------12--11-----------------------------------12???-10101011---|

Bridge: 
Guitar 1:
e|--------------------------------------|
B|--------------------------------------|
G|--------------------------------------| x2
D|----------7---------------------------| 
A|----6-7-9---10-9-10-9h10-7------------|
E|--7-----------------------------------|
 
Guitar 2:
e|--------------------------------------|
B|--------------------------------------|
G|--------------------------------------| x2
D|------9-7-9p7-9-7---------------------| 
A|---10-------------10-9h10-7-----------|
E|--------------------------------------|



Guitar 1:         
e|--------------------------------------|
B|----------------------|triplets|------|
G|--8----7----9----------7777778--------|
D|--8-x8-7-x4-9-x4-7-----7777778--------|
A|--6----5----7----7-x8--5555556--------|
E|-----------------5--------------------|
 
Guitar 2:
e|--------------------8--------------------------------------------|
B|------------8-10-12---12-10-12-10-8-8--7-8--10-8-7-8-------------|
G|--8--8-9-11-------------------------------------------9--7-------|
D|------------------------------------------------------------10---|
A|-----------------------------------------------------------------|
E|-----------------------------------------------------------------|
  
  |------Triplets--------|------------------|
e|----------------------10-----------------------|
B|----------------101213--13-12-10-12-10---------|
G|------------1112-----------------------12-12~--|
D|-------91012-----------------------------------|
A|--91012----------------------------------------|
E|-----------------------------------------------|

Ending:
Guitar 1&2: all triplets (palm muted)
e|--------------------------------------|
B|--------------------------------------|
G|--------------5----------8------------| 
D|--5-----------5-x8 beats-8-x6 beats---| 
A|--5-x16 beats-3----------6------------|
E|--3-----------------------------------|

Guitar 1&2:
e|------------------------------------------|
B|------------------------------------------|
G|-------4-------8--7----9---------7~-7-7---| 
D|--5----4--2----8--7-x4-9-x4-7----7~-7-7---| 
A|--5-x6-2--2-x6-6--5----7----7-x4-5~-5-5---|
E|--3-------0-----------------5-------------|

Outro:
Guitar 1:
e|-------------------------|
B|-------------------------|
G|-----------------7-------| Repeat til end
D|--5----2----7----7-x4----| 
A|--5-x4-2-x4-7-x4-5-------|
E|--3----0----5------------|

Guitar 2:
e|---------------------------------|
B|---------------------------------|
G|---------------------------------| Repeat til end
D|---------7-5-4-5-7--5--4---------| 
A|--5----5------------------7------|
E|-----7---------------------------|

My Chemical Romance - All I Want For Christmas Is You аккорды

guitar chord A
guitar chord B
guitar chord C
guitar chord Cm
guitar chord D
guitar chord E
guitar chord Em
guitar chord G

Разбор My Chemical Romance - All I Want For Christmas Is You на гитаре

1 Звезда2 Звезды3 Звезды4 Звезды5 Звезд (Пока оценок нет)
Загрузка...

Добавить комментарий

Ваш адрес email не будет опубликован. Обязательные поля помечены *