Muse – Uno Acoustic

шрифт
Print this page
2021-02-24 Muse – Uno Acoustic
BAND :Muse                                                SONG :  Uno(Acoustic)                                                     
ALBUM     :  ---                                                         
TABBED BY :  Gabriel Romero  
As you can see this tab is almost the same of the electric version
of uno, I add some other things to this tab that the acoustic one 
has.
If you  need  help with  some tabs  only  send me an e-mail and
I'll try to help you. Any comments and suggestions are received
to this mail 
GUITAR TAB
STANDAR TUNNING
eBGDAE
Intro:
e----------------------------------------------------
B----------------------------8-8-8-8-----------------
G--------------------5-5-5-5-7-7-7-7-----------------
D-XXXXXXXXXXXXXXXX---0-0-0-0-0-0-0-0-----------------
A-XXXXXXXXXXXXXXXX---0-0-0-0-------------------------
E-XXXXXXXXXXXXXXXX-----------------------------------
  |--------------|
   PLAY THIS AS
   NECESSARY
THEN:
B--8-7-7-8-7-7-8--8-7-7-8-7-7-8--8-7-7-8-7-7-8--8-7-7-8-7-7-8--
G--9-9-9-9-9-9-9--9-9-9-9-9-9-9--5-5-5-5-5-5-5--5-5-5-5-5-5-5--
B--8-7-7-8-7-7-8--8-7-7-8-7-7-8--8-7-7-8-7-7-8--8-7-7-8-7-7-8--
G--8-8-8-8-8-8-8--8-8-8-8-8-8-8--9-9-9-9-9-9-9--9-9-9-9-9-9-9--
B--7-7-7-7-7-7--
G--9-9-9-9-9-9--
NEXT FOUR PART NEEDS TREMOLO PICKING
B--11-10-10-11-10-10-11--11-10-10-11-10-10-11--11-10-10-11-10-10-11--
G--12-12-12-12-12-12-12--12-12-12-12-12-12-12---9--9--9--9--9--9--9--
B--11-10-10-11-10-10-11--11-10-10-11-10-10-11--11-10-10-11-10-10-11--
G---9--9--9--9--9--9--9--11-11-11-11-11-11-11--11-11-11-11-11-11-11--
e-------
B-----0-
G----0--
D---2---
A--2----
E-0-----
VERSE:
X - THIS X IS FOR MUTING THE STRINGS DON'T LET THEM RING
e--0--0-X--0--0-X--0----0--0-X--0--0-X--0-  Em 022000
B--0--0-X--0--0-X--0----0--0-X--0--0-X--0-  Am 002210 
G--0--0-X--0--0-X--0----0--0-X--0--0-X--0-  B7 021202
D--2--2-X--2--2-X--2----2--2-X--2--2-X--2-
A--2--2-X--2--2-X--2----2--2-X--2--2-X--2-
E--0--0-X--0--0-X--0----0--0-X--0--0-X--0-   and so on for each chord
           Em
This means nothing to me
               Am
'Cause you are nothing to me
             B7
And it means nothing to me
              Em
That you blew this away
e------------------------
B------------------------
G------------------------
D-2h3p2p0h2p0------------
A-------------0-0-4-4-3--
E------------------------
   
     ******here the strumming is almost the same but with the notes
           one octave up, the strumming goes from e to E*******
e--7-X--7----X--7-X--7----X--   Em X79987 or X X X 12 12 12
B--8-X--8----X--8-X--8----X--   Am 577555 or X X X 14 13 12
G--9-X--9----X--9-X--9----X--   B7 797877 or X X X 14 12 14
D--9-X--9----X--9-X--9----X--
A----------------------------
E----------------------------   and so on for each chord
'Cause you could have been number one
If you only found the time
And you could have ruled the whole world
If you had the chance
Chorus:
ALL WITH TREMOLO PICKING
B--8-8-8--7-7-7--7-7-7--8-8-8--  THIS FOUR CHORDS ARE THE Chorus,  
G--9-9-9--5-5-5--8-8-8--9-9-9--  PLAY EACH ONE AS NECESSARY
D--9-9-9--5-5-5--9-9-9--9-9-9--
You could have been number one
And you could have ruled the whole world
And we could have had so much fun
But you blew it away
SOLO:
A-----4---3---2--2--0-2-3-2-0-2----------------------------
E-0-----------------------------0-2-3--2--3-2-2~~-0--2--0--
e--------------------------------------------------0--
B-------------------------------------------------0---
G------------------------------------------------0----
D-----------------------------------------------2-----
A-----4---3---2-----2--------------4---3---2---2------
E-0--------------2-----0-2-3---0--------------0-------
VERSE 2: (THE SAME OF VERSE 1) 
You're still nothing to me
And this is nothing to me
And you don't know what you've don
But I'll give you a clue
You could have been number one            
If you only had the chance              
And you could have ruled the whole world 
If you had the time                       
Chorus: (SAME Chorus)
You could have been number one
And you could have ruled the whole world
And we could have had so much fun
But you blew it away
You could have been number one
And you could have ruled the whole world
And we could have had so much fun
But you blew it away 
Outro:
NEXT FOUR PART NEEDS TREMOLO PICKING
B--11-10-10-11-10-10-11--11-10-10-11-10-10-11--11-10-10-11-10-10-11--
G--12-12-12-12-12-12-12--12-12-12-12-12-12-12---9--9--9--9--9--9--9--
B--11-10-10-11-10-10-11--11-10-10-11-10-10-11--11-10-10-11-10-10-11--
G---9--9--9--9--9--9--9--11-11-11-11-11-11-11--11-11-11-11-11-11-11--
If you  need  help with  some tabs  only  send me an e-mail and
I'll try to help you. Any comments and suggestions are received
to this mail 

Muse - Uno Acoustic аккорды

guitar chord Am
guitar chord Em
guitar chord B7

Разбор Muse - Uno Acoustic на гитаре

1 Звезда2 Звезды3 Звезды4 Звезды5 Звезд (Пока оценок нет)
Загрузка...

Добавить комментарий

Ваш адрес email не будет опубликован. Обязательные поля помечены *