Михаил Шуфутинский – Свечи

шрифт
Print this page
guitar chord B
guitar chord Cm
guitar chord D
guitar chord F
guitar chord Gm
guitar chord Eb
2020-09-06 Михаил Шуфутинский – Свечи
Вступление: (Бетховен - Лунная соната, 1st movement in G minor)
E||-----3--6-----3--6--|-----3--6-----3--6--|
B||--3--------3--------|--3--------3--------|
G||--------------------|--------------------|
D||--------------------|--------------------|
A||--------------------|--------------------|
E||--3-----------------|--------------------|

-----3--6-----3--6--|-----3--6-----3--6--|-----3--6-----3--6--|
--3--------3--------|--3--------3--------|--4--------4--------|
--------------------|--------------------|--------------------|
--3-----------------|--------------------|--------------------|
--------------------|--------------------|--------------------|
--------------------|--------------------|--------------------|

-----4--8-----4--8--|-----5--8-----3--6--|-----3--5--------5--|
--4--------4--------|--3--------3--------|--3-----------7-----|
--------------------|--------------------|-----------5--------|
--------------------|--------------------|--------------------|
--------------------|--------------------|--------------------|
--------------------|--------------------|--------------------|

--------3-----3--6--|-----3--6--10--3--6-10-|--10------8-----5--8--|
-----3-----3--------|--3--------3-----------|--3---10-----3--------|
--3-----------------|-----------------------|----------------------|
--------------------|-----------------------|----------------------|
--------------------|-----------------------|----------------------|
--------------------|-----------------------|----------------------|

-----5--8--10------8-10-|--10--3--6-----3--6--|--11--3--6-----3--6--|
--3--------3---10-------|--3---------3--------|------------4--------|
------------------------|---------------------|---------------------|
---------------------12-|---------------------|--13-----------------|
------------------------|---------------------|---------------------|
------------------------|---------------------|---------------------|

--10-----6--------6--|--8-----5--------5--|--10-----6--------6--|
--3---6-----3--6-----|-----6--------6-----|------6--------6-----|
---------------------|--5--------5--------|--7---------7--------|
---------------------|--------------------|---------------------|
---------------------|--------------------|---------------------|
---------------------|--------------------|---------------------|

--------6--------6--|--------5--------5--|--------5--------5--|
-----6--------6-----|-----7--------7-----|-----7--------7-----|
--7--------7--------|--7--------7--------|--7--------7--------|
--------------------|--------------------|--------------------|
--------------------|--------------------|--------------------|
--------------------|--------------------|--------------------|

Gm
Осенней ночью, за окном,
Eb
Туман поссорился с дождем.
Cm                F    
И беспробудный вечер,
B
И беспробудный вечер.

Припев: x2
          Eb            F
О чем-то дальнем, неземном,           
           B           Eb        
О чем-то близком и родном,        
Cm                Cm/A             
Сгорая плачут свечи,                
D                Gm                  
Сгорая плачут свечи.                

Проигрыш: x2
  Gm                 Gm
------------------|--3-------------|
----------3-----3-|--------3-------|
--------3-----3---|-----3----3---3-|
------5-----5-----|------------5---|
----5-------------|----------------|
--3---------------|----------------|

Gm
Казалось, плакать им о чем?
Eb
Мы, вообщем, праведно живем.
Cm                F  
Но иногда, под вечер, 
B
Но иногда, под вечер,

Припев: x2
          Eb            F
Мы вдруг садимся за рояль,            
         B           Eb   
Снимаем с клавишей вуаль,       
Cm           Cm/A  
И зажигаем свечи,                
D             Gm 
И зажигаем свечи!                 

Проигрыш = Вступление

Gm
А свечи плачут за людей;
Eb
То тише плачут, то сильней.
Cm                F  
И позабыть волшебных дней 
B
Они не могут, свечи...

Припев: x2
        Eb           F
И очень важно для меня,               
         B           Eb 
Что не боится воск огня,  
Cm           Cm/A  
И за тебя, и за меня,      
D             Gm 
Сгорая плачут свечи.        

D             Gm 
Сгорая плачут свечи.  x2 

Проигрыш: (со снижением громкости)
E||-----3--6-----3--6--|-----3--6-----3--6--|
B||--3--------3--------|--3--------3--------|
G||--------------------|--------------------|
D||--------------------|--------------------|
A||--------------------|--------------------|
E||--3-----------------|--------------------|

-----3--6-----3--6--|-----3--6-----3--6--|-----3--6-----3--6--|
--3--------3--------|--3--------3--------|--4--------4--------|
--------------------|--------------------|--------------------|
--3-----------------|--------------------|--------------------|
--------------------|--------------------|--------------------|
--------------------|--------------------|--------------------|

-----4--8-----4--8--|-----5--8-----3--6--|-----3--5--------5--|
--4--------4--------|--3--------3--------|--3-----------7-----|
--------------------|--------------------|-----------5--------|
--------------------|--------------------|--------------------|
--------------------|--------------------|--------------------|
--------------------|--------------------|--------------------|

--------3-----3--6--|-----3--6--10--3--6-10-|--10------8-----5--8--|
-----3-----3--------|--3--------3-----------|--3---10-----3--------|
--3-----------------|-----------------------|----------------------|
--------------------|-----------------------|----------------------|
--------------------|-----------------------|----------------------|
--------------------|-----------------------|----------------------|

-----5--8--10------8-10-|--10--3--6-----3--6--|--11--3--6-----3--6--|
--3--------3---10-------|--3---------3--------|------------4--------|
------------------------|---------------------|---------------------|
---------------------12-|---------------------|--13-----------------|
------------------------|---------------------|---------------------|
------------------------|---------------------|---------------------|

--10-----6--------6--|--8-----5--------5--|--10-----6--------6--|
--3---6-----3--6-----|-----6--------6-----|------6--------6-----|
---------------------|--5--------5--------|--7---------7--------|
---------------------|--------------------|---------------------|
---------------------|--------------------|---------------------|
---------------------|--------------------|---------------------|

--------6--------6--|--------5--------5--|--------5--------5--|
-----6--------6-----|-----7--------7-----|-----7--------7-----|
--7--------7--------|--7--------7--------|--7--------7--------|
--------------------|--------------------|--------------------|
--------------------|--------------------|--------------------|
--------------------|--------------------|--------------------|

Михаил Шуфутинский - Свечи аккорды

guitar chord B
guitar chord Cm
guitar chord D
guitar chord F
guitar chord Gm
guitar chord Eb

Разбор Михаил Шуфутинский - Свечи на гитаре

1 Звезда2 Звезды3 Звезды4 Звезды5 Звезд (Пока оценок нет)
Загрузка...

Добавить комментарий

Ваш адрес email не будет опубликован. Обязательные поля помечены *