Marilyn Manson – Last Day On Earth

шрифт
Print this page
2021-01-12 Marilyn Manson – Last Day On Earth
Intro/Chorus:
Guitar 1
e|-----------9-----|
B|--5--7--------7--|  
G|--------0--------|
D|-----------------|
A|-----------------|
E|-----------------|

Guitar 2:
    B  G  Em                                 D5  C5  B5
e|-----3--0--| Repeat Chords x3         e|--------------|
B|--4--0--0--|  then play:              B|--------------|
G|--4--0--0--|                          G|---7---5---4--|
D|--4--0--2--|                          D|---7---5---4--|
A|--2--2--2--| During Chorus you can    A|---5---3---2--|
E|-----3--0--| Play all 5th chords if   E|--------------|
               you wnat to (B5 G5 E5)

Verses:
Both Guitars
    Am    G     Am    G     Am    G     D
e|--0-----3-----0-----3-----0-----3-----2--|
B|--1-----0-----1-----0-----1-----0-----3--|
G|--2-----0-----2-----0-----2-----0-----2--|
D|--2-----0-----2-----0-----2-----0-----0--|
A|--0-----2-----0-----2-----0-----2--------|
E|--------3-----------3-----------3--------|

Chorus = Intro

Solo:
Guitar 1
e|-----7-----10--8--7--8-----7-----5-----|
B|--5-----8---------------5-----8-----5--|
G|---------------------------------------|
D|---------------------------------------|
A|---------------------------------------|
E|---------------------------------------|

Guitar 2
    Am    G     Am    G     Am    G     D
e|--0-----3-----0-----3-----0-----3-----2--|
B|--1-----0-----1-----0-----1-----0-----3--|
G|--2-----0-----2-----0-----2-----0-----2--|
D|--2-----0-----2-----0-----2-----0-----0--|
A|--0-----2-----0-----2-----0-----2--------|
E|--------3-----------3-----------3--------|

Verse 2 = Verse 1

Chorus

Bridge: play Solo x2

Chorus

Marilyn Manson - Last Day On Earth аккорды

guitar chord Am
guitar chord B
guitar chord D
guitar chord Em
guitar chord G
guitar chord C5
guitar chord D5

Разбор Marilyn Manson - Last Day On Earth на гитаре

1 Звезда2 Звезды3 Звезды4 Звезды5 Звезд (Пока оценок нет)
Загрузка...

Добавить комментарий

Ваш адрес email не будет опубликован. Обязательные поля помечены *