Lumen – Космонафт

шрифт
Print this page
2019-10-11 Lumen – Космонафт
   C                      G
У меня был друг и он мечтал о звезде
    F                 G
И фотку Гагарина таскал с собой везде...
Ребята во дворе говорили "ненормально,
Что макет ракеты занимает пол спальни"
Am                    C
И пока мы бегали к красивым девчонкам,
         G               F
Он смотрел на небо, он стоял в сторонке...
C      G               F          G-Am-G 
И он кричал: "Я всё равно буду летать!
C         G            F          G    Am
Пойдите прочь, я космонавт, ВАШУ МАТЬ!!!"
Мы стали чуть старше, а он неизменился,
Мы мечтали о земном, а ему Юпитер снился...
Но провалены экзамены в лётный институт -
Мечта мечтой, а в космонавты не берут...
И его забрили в армию бегать с автоматом,
Но он будет такими же каким и был когда-то...
И он кричит: "Я всё равно буду летать!
Пойдите прочь, я космонавт, ВАШУ МАТЬ
|--------------------------------------| Repeat 4X
|-----------8-----------------8--------|
|-------------7------------7----7------|
|--------7------7--------7--------7----|
|--5--5------------5---5-------------5-|
|--------------------------------------|
|-------------------------------------------------------------------------------------------| Repeat 2X
|-------------------------------------------------------------------------------------------|
|-------------------------------------------------------------------------------------------|
|-----------------4------------5-5-4-4----------------4-----------5-5-4-4-------------------|
|--5-5-5-5-5-5-5----------------------------------------------------------------------------|
|--------------------5-5-5-5------------3-3-3-3-3-3-3----5-5-5-5----------------------------|
||G1
||---------------2-3----------3-3-2-2--------------------------------------------------------| Repeat 2X
||--3-3-3-3-3-3------3-3-3-3-----------------------------------------------------------------|
||------------------------------------2-2-2-2-2-2-2-2-0-0-0-0-0-0-0-0------------------------|
||-------------------------------------------------------------------------------------------|
||-------------------------------------------------------------------------------------------|
||-------------------------------------------------------------------------------------------|
||G2
||-------------------------------------------------------------------------------------------|
||--7-7-7-7-7-7-7-7-7-7-7-7-7-7-7-7-7--------------------------------------------------------|
||--7-7-7-7-7-7-7-7-7-7-7-7-7-7-7-7-7--7-7-7-7-7-7-7-7-5-5-5-5-5-5-5-5-----------------------|
||--5-5-5-5-5-5-5-5-5-5-5-5-5-5-5-5-5--7-7-7-7-7-7-7-7-5-5-5-5-5-5-5-5-----------------------|
||-------------------------------------5-5-5-5-5-5-5-7-3-3-3-3-3-3-3-3-----------------------|
 тут главное - ритм                                                                            
|-----------------------------------------------------------------------------|--------------------|
|--3-3--3---3-3-3-3/5---5--5---5-5-5-5/7---7--7--7-7-7-7----7--7-7--75------5|-5/7---3----2-----3-|
|-----------------------------------------------------------------------------|--------------------|
|-----------------------------------------------------------------------------|--------------------|
|-----------------------------------------------------------------------------|--------------------|
|-----------------------------------------------------------------------------|--------------------|
|---------------------------------------------------------------------|
|---------------------------------------------------------------------|
|--7-7-7----7-7-7-----------------------------------------------------|
|--7-7-7----7-7-7-----7-7-7---7-7-7-----5-5-5---5-5-5----7-7-7--7-7-7-|
|--5-5-5----5-5-5-----7-7-7---7-7-7-----5-5-5---5-5-5----7-7-7--7-7-7-|
|---------------------5-5-5---5-5-5-----3-3-3---3-3-3----5-5-5--5-5-5-|
Концовка:
|---5-5-5-5-5-5-5-5-7-7-7-7-7-7-7-7----7-------5------3-------------------------------------|
|-------------------------------------------------------------7--------3--------------------|
|-------------------------------------------------------------------------------------------|
|-------------------------------------------------------------------------------------------|
|-------------------------------------------------------------------------------------------|
|-------------------------------------------------------------------------------------------|
IСQ -3-5-8-8-3-2-5-1-7-

Lumen - Космонафт аккорды

guitar chord Am
guitar chord C
guitar chord F
guitar chord G
1 Звезда2 Звезды3 Звезды4 Звезды5 Звезд (Пока оценок нет)
Загрузка...

Добавить комментарий

Ваш адрес email не будет опубликован. Обязательные поля помечены *