Louna – С нуля

шрифт
Print this page
2020-12-28 Louna – С нуля
Проигрыш: 
6|--------------5-5-----------------4-4----------------5-5-4-4-4-4-
5|-4---4-7-6----------4---4-7-6---------4---4-7-6------------------
4|-----------------------------------------------------------------
3|-----------------------------------------------------------------
2|-----------------------------------------------------------------
1|-----------------------------------------------------------------

C#m A(V)
Как жить теперь
C#m G#
Когда однажды
C#m A(V)
Ты вдруг решил:
G#
Всё, что было - зря?
C#m A(V)
Семь раз отмерь
C#m G#
Подумай дважды
C#m A(V)
И не спеши
G#
Начинать с нуля

Проигрыш: 
6|--------------5-5-----------------4-4----------------5-5-4-4-4-4-
5|-4---4-7-6----------4---4-7-6---------4---4-7-6------------------
4|-----------------------------------------------------------------
3|-----------------------------------------------------------------
2|-----------------------------------------------------------------
1|-----------------------------------------------------------------

C#m A(V)
Мир не так уж прост, 
C#m G#
И всегда сложно жить вопреки -
C#m A(V)
Разрушить мост и порвать 
G#
С прошлым взмахом руки.
C#m A(V)
Не спеши делать шаг 
C#m G#
Наугад просто так,
C#m A(V)
Пока сам не поймешь, 
G#
Чего ждешь дальше.

Припев:
C#m A(V)
Как жить теперь, когда однажды, 
C#m G#
Ты вдруг решил: все, что было - зря.
C#m A(V)
Семь раз отмерь, подумай дважды - 
G#
И не спеши начинать с нуля.

C#m A(V)
Мир не так уж прост, 
C#m G#
Но всегда можно жить вопреки -
C#m A(V)
Встать в полный рост 
G#
И зажечь звезды взмахом руки.
C#m A(V)
Оглянись назад, и начав разбег - 
C#m G#
Оцени, что было раньше.
C#m A(V)
И подняв глаза, сделай новый шаг вверх, 
G#
Лишь поняв, чего ждешь дальше.

C#m A(V)
Не спеши делать шаг 
C#m G#
Наугад просто так,
C#m A(V)
Пока сам не поймешь: 
G#
Чего ждал, чего ждешь.
C#m A(V)
Не спеши брать разбег 
C#m G#
К новой цели наверх,
C#m A(V)
Пока ты не познал: 
G#
Кем ты был, кем ты стал!

Припев:
C#m A(V)
Как жить теперь, когда однажды, 
C#m G#
Ты вдруг решил: все, что было - зря.
C#m A(V)
Семь раз отмерь, подумай дважды - 
G#
И не спеши начинать с нуля. 

C#m A(V)
Оглянись назад, и начав разбег - 
C#m G#
Оцени, что было раньше.
C#m A(V)
И подняв глаза, сделай новый шаг вверх, 
G#
Лишь поняв, чего ждешь дальше. Дальше.

Louna - С нуля аккорды

guitar chord G#
guitar chord C#m

Разбор Louna - С нуля на гитаре

1 Звезда2 Звезды3 Звезды4 Звезды5 Звезд (Пока оценок нет)
Загрузка...

Добавить комментарий

Ваш адрес email не будет опубликован. Обязательные поля помечены *