Ленинград – Таня

2019-11-17 Ленинград – Таня
Intro:
   Gm    Cm                      D                                                    
1||-6-------------------------------------||
2||-8----------------------------7--------||  
3||-7---7--8--10--6h7h8--7-------7--------||  
4||-8----------------------------7--------||  
5||-------------------------10---5--------||
6||---------------------------------------||

    Gm                          Cm                      (x2) 
1||-3--3-3-3-3-3-3-3-3--3--3----3-3-3-3-3-3-3-3-3--3--3--||
2||-3--3-3-3-3-3-3-3-3--4--3----4-4-4-4-4-4-4-4-4--3--4--||  
3||-3--3-3-3-3-3-3-3-3--3--3----5-5-5-5-5-5-5-5-5--5--5--|| 
4||-5--5-5-5-5-5-5-5-5--5--5----5-5-5-5-5-5-5-5-5--5--5--|| 
5||-5--5-5-5-5-5-5-5-5--5--5----3-3-3-3-3-3-3-3-3--3--3--||
6||-3--3-3-3-3-3-3-3-3--3--3----3-3-3-3-3-3-3-3-3--3--3--||

    Gm                          Cm            (x2)
1||-3--3-3-3-3-3--3--3----3-3-3-3-3--3-3-3----||
2||-3--3-3-3-3-6--4--3----4-4-4-4-6--4-4-4----||  
3||-3--3-3-3-3-3--3--3----5-5-5-5-3--3-3-3----|| 
4||-5--5-5-5-5-3--3--5----5-5-5-5-5--5-5-5----|| 
5||-5--5-5-5-5-5--5--5----3-3-3-3-3--3-3-3----||
6||-3--3-3-3-3-3--3--3----3-3-3-3-3--3-3-3----||

Gm
Зацвели давно в саду тюльпаны
Cm
От меня ушла Татьяна
Gm
Буду с мужиками я ходить
D            Gm  
На Фонтанку водку пить.

Gm Cm Gm D Gm
Gm Cm Gm

D            Gm       
На Фонтанку водку пить.

Gm
Вечером я сяду да у окошка
Cm
Только во дворе ябуться кошки.
Gm
Это весна пришла -
D            Gm  
Таня от меня ушла.

Gm Cm Gm D Gm
Gm Cm Gm

D         Gm       
Таня от меня ушла!

Проигрыш = Intro:
   Gm    Cm                      D                                                    
1||-6-------------------------------------||
2||-8----------------------------7--------||  
3||-7---7--8--10--6h7h8--7-------7--------||  
4||-8----------------------------7--------||  
5||-------------------------10---5--------||
6||---------------------------------------||

    Gm                          Cm                      (x2) 
1||-3--3-3-3-3-3-3-3-3--3--3----3-3-3-3-3-3-3-3-3--3--3--||
2||-3--3-3-3-3-3-3-3-3--4--3----4-4-4-4-4-4-4-4-4--3--4--||  
3||-3--3-3-3-3-3-3-3-3--3--3----5-5-5-5-5-5-5-5-5--5--5--|| 
4||-5--5-5-5-5-5-5-5-5--5--5----5-5-5-5-5-5-5-5-5--5--5--|| 
5||-5--5-5-5-5-5-5-5-5--5--5----3-3-3-3-3-3-3-3-3--3--3--||
6||-3--3-3-3-3-3-3-3-3--3--3----3-3-3-3-3-3-3-3-3--3--3--||

    Gm                          Cm            (x2)
1||-3--3-3-3-3-3--3--3----3-3-3-3-3--3-3-3----||
2||-3--3-3-3-3-6--4--3----4-4-4-4-6--4-4-4----||  
3||-3--3-3-3-3-3--3--3----5-5-5-5-3--3-3-3----|| 
4||-5--5-5-5-5-3--3--5----5-5-5-5-5--5-5-5----|| 
5||-5--5-5-5-5-5--5--5----3-3-3-3-3--3-3-3----||
6||-3--3-3-3-3-3--3--3----3-3-3-3-3--3-3-3----||

Gm
Заливал беду я пивом,
Cm
Но тоска не проходила.
Gm
А только печаль пришла -
D            Gm  
Таня от меня ушла.

Gm Cm Gm D Gm
Gm Cm Gm

D         Gm       
Таня от меня ушла!

Ленинград - Таня аккорды

guitar chord Cm
guitar chord D
guitar chord Gm

Разбор Ленинград - Таня на гитаре

1 Звезда2 Звезды3 Звезды4 Звезды5 Звезд (Пока оценок нет)
Загрузка...