Ленинград – Ду ю лав ми

2019-11-12 Ленинград – Ду ю лав ми
     Bm                        Em
 У тебя глаза такие - обалденные глаза
    G      Bm                 F#
 Подыхаю от любви я отказали тормоза
     Bm                        Em
 Вот влюбился  все пиздец так что сводит брюхо
    G      Bm                 F#
 Думал ангел ты с небес оказалась шлюха
 
    Em                            Bm
 Дай мне, дай мне, дай мне, дай любви...
  Em
 Я кричу тебе, тебе, тебе бе
  F#      F# F E
 Ду ю лав ми
 
     Bm                        Em
 Между бабой и деньгами для меня нет разницы
    G      Bm                 F#
 Говоришь "люблю тебя", а в ответ иди ты в задницу
     Bm                        Em
 Ножь по вене поперек, поперек любви моей
    G      Bm                 F#
 Сердце бьется об висок словно в клетке соловей
 
    Em                            Bm
 Дай мне, дай мне, дай мне, дай любви...
  Em
 Я кричу тебе, тебе, тебе бе
  F#      F# F E
 Ду ю лав ми
___________________________
 2-ой вариант:

Рифф:
   Bm
 e|----------------------------------------|
 B|----------------------------------------|
 G|----------------------------------------|
 D|------3-4-3-4-----3-4-3-4-----3-4-3-4---|
 A|-2-5----------2-5---------2-5---------2-|
 E|----------------------------------------|
 
 Bm
 У тебя глаза такие,
 Bm       Em
 Обалденные глаза,
 Em      Bm
 Подыхаю от любви я,
 G         F#
 Отказали тормоза,
 Bm
 Вот влюбился, все пиздец,
 Bm       Em
 Так что сводит брюхо,
 Em      Bm
 Думал ангел ты с небес,
 G         F#
 Оказалась шлюха.
 
 Em                                       Bm
 Дай мне, дай мне, дай мне, дай мне, дай любви,
 Em                             F#        G
 Я кричу тебе, тебе, тебе, бе: дую ю лав ми!
 
Рифф:
   Bm
 e|----------------------------------------|
 B|----------------------------------------|
 G|----------------------------------------|
 D|------3-4-3-4-----3-4-3-4-----3-4-3-4---|
 A|-2-5----------2-5---------2-5---------2-|
 E|----------------------------------------|
 
 Bm
 Между бабой и деньгами
 Bm       Em
 Для меня нет разницы,
 Em      Bm
 Говоришь: "Люблю тебя!"
 G         F#
 А в ответ - "Иди ты в задницу",
 Bm
 Нож по вене поперек,
 Bm       Em
 Поперек любви моей,
 Em      Bm
 Сердце бьется об висок,
 G         F#
 Словно в клетке соловей.
 
Соло:
    Bm                          Em
 e|--------------------------------|
 B|--------------------------------|
 G|--------------------------------|
 D|--------------------------------|
 A|---2-2-2-4---2-2----2-2-2-4-----|
 E|-2---------5------2---------5-3-|
 
   Bm                G         F#
 e|------------------------------|
 B|------------------------------|
 G|------------------------------|
 D|---2-2-2-4---2-2--5-5-5-7-5-4-|
 A|-2---------5------------------|
 E|------------------------------|
 
 Em                                       Bm
 Дай мне, дай мне, дай мне, дай мне, дай любви,
 Em                             F#        G
 Я кричу тебе, тебе, тебе, бе: дую ю лав ми!
 Em                                       Bm
 Дай мне, дай мне, дай мне, дай мне, дай любви,
 Em                             F#        G
 Я кричу тебе, тебе, тебе, бе: дую ю лав ми!
 
Outro:
    Bm
 e|-----1^2^1^2-|
 B|---3---------|
 G|-------------|
 D|-------------| x4
 A|-2-----------|
 E|-------------|
 
 Em                                       Bm
 Дай мне, дай мне, дай мне, дай мне, дай любви,
 Em                             F#        G
 Я кричу тебе, тебе, тебе, тебе: дую ю лав ми!

Ленинград - Ду ю лав ми аккорды

guitar chord Bm
guitar chord E
guitar chord Em
guitar chord F
guitar chord G
guitar chord F#
1 Звезда2 Звезды3 Звезды4 Звезды5 Звезд (Пока оценок нет)
Загрузка...