Ленинград – Дикий мужчина

2019-11-12 Ленинград – Дикий мужчина
Intro:
-7-------7---7---7-------7----7-----9------------9---------9-------7-----7-
--7-7----7-7-7---8-8-----8-8--8-----11--11-----11---11--11-----7-7---------
---7-------7---7---9--------9-----9------11----------11--------11---7------

Bm
Ты называешь меня говнюком
Em
Да я все время бухой
F#
И твою жопу при людях хватаю 
      Bm
Своей волосатой рукой
      Bm
Да мои ноги вонючие палки
            Em
На которых все в дырках носки
   F#
А эти две кучи из пыли и грязи
Bm
Это мои башмаки

Проигрыш = Intro:
-7-------7---7---7-------7----7-----9------------9---------9-------7-----7-
--7-7----7-7-7---8-8-----8-8--8-----11--11-----11---11--11-----7-7---------
---7-------7---7---9--------9-----9------11----------11--------11---7------

Припев:
Em                       F#
Да ты права, я дикий мужчина, 
Em                  F#
Ты права я дикий мужчина
Em                 F#
Ты права я дикий мужчина
Bm
Яйца табак перегар и щетина

Проигрыш = Intro:
-7-------7---7---7-------7----7-----9------------9---------9-------7-----7-
--7-7----7-7-7---8-8-----8-8--8-----11--11-----11---11--11-----7-7---------
---7-------7---7---9--------9-----9------11----------11--------11---7------

Припев:
Em                       F#
Да ты права, я дикий мужчина, 
Em                  F#
Ты права я дикий мужчина
Em                 F#
Ты права я дикий мужчина
Bm
Яйца табак перегар и щетина

Ленинград - Дикий мужчина аккорды

guitar chord Bm
guitar chord Em
guitar chord F#

Разбор Ленинград - Дикий мужчина на гитаре

1 Звезда2 Звезды3 Звезды4 Звезды5 Звезд (Пока оценок нет)
Загрузка...