Led Zeppelin – The Lemon Song (btab)

шрифт
Print this page
2021-03-22 Led Zeppelin – The Lemon Song (btab)
 E7 
 G|*---||----------------------|-----9--7--7-----------7--| 
 D||4:-||-----6--7--8--9-------|--------------7--8--9-----| 
 A||4:-||--7--------------7----|--7-----------------------| 
 E|*---||-------------------7--|--------------------------| 
 
                                                        A7 
 G|---------------------------|--9-8-7--------------------------| 
 D|-------6--6--7--7--8--9--0-|---------0-9-0-7-6---------------| 
 A|-7--7----------------------|----------------------____--7----| 
 E|---------------------------|-------------------7--6--7-----6-| 
 
                                                   E7 
 G|-------------------------------|----------------------------| 
 D|------------------------5--6---|-7--------------------7-----| 
 A|------4----5---6-0-6-7---------|----7----7--------4----5--6-| 
 E|-5-5-----5---5-----------------|-------5---5--5-------------| 
 
 G|------------------------|--------------------9-------| 
 D|----6-6-6--7-7-7--8-8-8-|-9----------------9---7---8-| 
 A|-7----------------------|----7--5-0-7-7-7---------7--| 
 E|------------------------|----------------------------| 
 
   B7                  A7                          E7 
 G|-------11--------------|-----------------------------| 
 D|-9-9-9----9------9---9-|-7-----------4-5-6-7---------| 
 A|------------12-9---9---|---0-4-5-6-7---------3-4-5-6-| 
 E|-----------------------|-----------------------------| 
 
 G|---9-7-------------|-------------------------| 
 D|-------9-7-5-------|-------------------------| 
 A|-7-----------7-5---|-7-7-5-------------5-6-7-| 
 E|-----------------7-|-------7-5-3-5-6-7-------| 
 
 G|-------------------------|| 
 D|-------------------------|| 
 A|-7-7-5-------------5-6-7-|| 
 E|-------7-5-3-5-6-7-------||

Led Zeppelin - The Lemon Song (btab) аккорды

guitar chord E7
guitar chord A7
guitar chord B7

Разбор Led Zeppelin - The Lemon Song (btab) на гитаре

1 Звезда2 Звезды3 Звезды4 Звезды5 Звезд (Пока оценок нет)
Загрузка...

Добавить комментарий

Ваш адрес email не будет опубликован. Обязательные поля помечены *