Led Zeppelin – Rock’N’Roll

шрифт
Print this page
2021-03-19 Led Zeppelin – Rock’N’Roll
Riff 1:
A
e|------------------------|--------------------------|
B|------------------------|--------------------------|
G|------------------------|--------------------------|
D|-2--2-----2--5^2--4-----|-----2--4--2--2--2--4--2--|
A|-0--0--4--0--0----0--3`-|-(3)-0--0--0--0--0--0--0--|
E|------------------------|--------------------------|
 
Riff 2:
D
|------------------------|--------------------------|
|------------------------|--------------------------|
|-2--2-----2--5^2--4-----|-----2--4--2--2--2--4--2--|
|-0--0--4--0--0----0--3`-|-(3)-0--0--0--0--0--0--0--|
|------------------------|--------------------------|
|------------------------|--------------------------|

Riff 3:
e
|---------------------------------------------------|
|------------------------|--------------------------|-
|------------------------|--------------------------|
|------------------------|--------------------------|
|-2--2-----2--5^2--4-----|-----2--4--2--2--2--4--2--|
|-0--0--4--0--0----0--3`-|-(3)-0--0--0--0--0--0--0--|
 
The verse tab also follow the chords of a twelve bar blues like this: 
  Verse riff:
       A
 |-----------------|        |------------------|
 |-----------------|        |------------------|
 |-----2-----------| x3     |-----2-----2------|
 |-----2-----------|        |-----2-----2------|
 |-----0-----------|        |------------------|

Led Zeppelin - Rock'N'Roll аккорды

guitar chord A
guitar chord D

Разбор Led Zeppelin - Rock'N'Roll на гитаре

1 Звезда2 Звезды3 Звезды4 Звезды5 Звезд (Пока оценок нет)
Загрузка...

Добавить комментарий

Ваш адрес email не будет опубликован. Обязательные поля помечены *