Константин Ступин – Дождь

шрифт
Print this page
2021-01-10 Константин Ступин – Дождь
Вступление/проигрыш:
-------------------------------------
-------------------------------------
-------------------------------------
------2-----2------2-3--2------------
--0------0-----0-------------------2-
--------------------------------3----

-------------------------------------------------------
-------------------------------------------------------
-------------------------------------------------------
-------------------------------------------------------
------2-----------2------------------3-----5---3----2--
---0-----0-----3-----3------1--------------------------

A5 
Шел дождь пел ветер
C5 F5
горел камин
A5 F5 C5 D5
Еще одно столетье унесло как дым
B5 E5
Моя тень ворует чьи-то сны чужие грезы

Проигрыш: x2
-------------------------------------
-------------------------------------
-------------------------------------
------2-----2------2-3--2------------
--0------0-----0-------------------2-
--------------------------------3----

-------------------------------------------------------
-------------------------------------------------------
-------------------------------------------------------
-------------------------------------------------------
------2-----------2------------------3-----5---3----2--
---0-----0-----3-----3------1--------------------------

A5
Я знаю всё растает
C5 F5
как папиросы дым
A5 F5 D5
Мои следы своруют чтоб пройти по ним
B5 E5
И только тень моя напомнит обо мне

Проигрыш: E5 D5 C5 }x2 
          D5 B5

A5 
Шел дождь пел ветер
C5 F5
горел камин
A5 F5 C5 D5
Еще одно столетие унесло как дым
B5 E5
И я и ты уйдем за ним оставив только тени

Константин Ступин - Дождь аккорды

guitar chord E5
guitar chord A5
guitar chord C5
guitar chord D5

Разбор Константин Ступин - Дождь на гитаре

1 Звезда2 Звезды3 Звезды4 Звезды5 Звезд (Пока оценок нет)
Загрузка...

Добавить комментарий

Ваш адрес email не будет опубликован. Обязательные поля помечены *