Конец Фильма – Песня духов

шрифт
Print this page
2020-06-26 Конец Фильма – Песня духов
Вступление:
   A5
A|---------5-------|---------5-------| 
E|-5---8-5-----8-5-|-----8-5-----8-5-| x4 

          A5
Ремень затянут по колену, чтоб не слишком был туг
          A5
И больше нет такой проблемы, как заполнить досуг
          B5
В расположении пехотном неуместна жена
       A5 
Тебе жену заменит ротный и еще старшина.

Проигрыш:
   A5
A|---------5-------|---------5-------| 
E|-5---8-5-----8-5-|-----8-5-----8-5-| x4 

       E5          D5
Здесь первый год стоит двух, покуда держится дух!

                   A5
A|-5-----5-------|----
E|---8-5---8-7-6-|-5--

   A5
A|---------5-------|---------5-------| 
E|-5---8-5-----8-5-|-----8-5-----8-5-| x4 

          A5
Здесь не монашеское братство, нет мольбы на устах,
          A5
Сержант научит разбираться в том, что значит устав.
          B5
Его приказы «смирно» - «вольно» цементирует мат,
          A5
А для особо недовольных существует наряд.

Проигрыш:
   A5
A|---------5-------|---------5-------| 
E|-5---8-5-----8-5-|-----8-5-----8-5-| x4 

       E5          D5
Здесь первый год стоит двух, покуда держится дух!

                   A5
A|-5-----5-------|----
E|---8-5---8-7-6-|-5--

   A5
A|---------5-------|---------5-------| 
E|-5---8-5-----8-5-|-----8-5-----8-5-| x4 
	
          A5   
И ты узнаешь, что не годы значит здесь слово «дед»,
          A5
И независимо от моды, ты здесь будешь одет.
          B5
Здесь ходят строем на обед, чеканя шаг каблуком.
          A5
Здесь трудно лишь пару лет, а дальше будет легко.

Проигрыш:
   A5
A|---------5-------|---------5-------| 
E|-5---8-5-----8-5-|-----8-5-----8-5-| x4 

       E5          D5
Здесь первый год стоит двух, покуда держится дух!

                   A5
A|-5-----5-------|----
E|---8-5---8-7-6-|-5--

   A5
A|---------5-------|---------5-------| 
E|-5---8-5-----8-5-|-----8-5-----8-5-| x4 

Конец Фильма - Песня духов аккорды

guitar chord E5
guitar chord A5
guitar chord D5

Разбор Конец Фильма - Песня духов на гитаре

1 Звезда2 Звезды3 Звезды4 Звезды5 Звезд (Пока оценок нет)
Загрузка...

Добавить комментарий

Ваш адрес email не будет опубликован. Обязательные поля помечены *