Калинов Мост – Торопятся взгляды

шрифт
Print this page
guitar chord Cm
guitar chord D
guitar chord G
guitar chord G7
2020-05-22 Калинов Мост – Торопятся взгляды
Intro:
  D                    Cm                  D          G            G7
e|-----2--------2----|-------------------|-----------------------|------------|
B|----3-3-3----3-3-3-|----4--------4-----|-----7--7---8----8--8--|-6---6---6--|
G|---2---2-2--2---2-2|---5-5-5----5-5-5--|----7-7--7----7---7--7-|---7--7---7-|
D|-0---------0-------|--5---5-5--5---5-5-|---7---7----5--5---5---|----5--5----|
A|-------------------|-3--------3--------|-5---------------------|------------|
E|-------------------|-------------------|-----------------------|------------|

|-------------------------------|---1//4---4---------------------|
|---4-3h4p3---------------------|---0--------(0)------3--3/4---4-|
|----------5--4h5--------0----0-|-1--//4-4------(4)---4--4/5-5---|
|-----------------4h5---0----0--|--------------------------------|
|-3-------------------1----2----|----------------------------3---|
|-------------------------------|--------------------------------|

|-------------------------------|---1//4---4---------7-7/8---8---|
|---4-3h4p3---------------------|---0--------(0)-----8-8---------|
|----------5--4h5--------0----0-|-1--//4-4------(4)--------5-----|
|-----------------4h5---0----0--|--------------------------------|
|-3-------------------1----2----|--------------------------------|
|-------------------------------|--------------------------------|

|--------------------------|-----------------------------------------------------|
|----10--------7-----0--/3-|----10---------7-----------8-----8---6-----6-----6---|
|-11---11---8----8---------|-11----11---8----8-------7---7----7----7-----7-----7-|
|-------------------0--/3--|-----------------------5-------5---------5-----5-----|
|-9---------6--6-6---------|-9--9--9----6--6-6---5-------------------------------|
|--------------------------|-----------------------------------------------------|

Не уберечь в облаках       (криво) 
|-------------8-------------------------------5----------------------|
|-----------7---7------------8--------------7---7-------8------8--6--|
|---------8------8---------7---7----------5-------5-------7----7--7--|
|-------7------------5---5-------5------7-----------7---5---5--------|
|--3//6----------------5--------------6------------------------------|
|--------------------------------------------------------------------|

Калинов Мост - Торопятся взгляды аккорды

guitar chord Cm
guitar chord D
guitar chord G
guitar chord G7

Разбор Калинов Мост - Торопятся взгляды на гитаре

1 Звезда2 Звезды3 Звезды4 Звезды5 Звезд (Пока оценок нет)
Загрузка...

Добавить комментарий

Ваш адрес email не будет опубликован. Обязательные поля помечены *