Isaak Chris – Round And Round

шрифт
Print this page
2021-01-24 Isaak Chris – Round And Round
Riff 1:
E|---------|
B|---------|
G|---------|
D|------7--|
A|------5--|
E|--0b-----|
 
Riff 2:
E|---------------------------|----------------------| This piece is played
B|--1h3-1h3-1h3-1h3----------|--1h3-1h3-1h3-1h3--0--| after a verse usually!
G|------------------3p1p0h1--|----------------------|
D|---------------------------|----------------------|
A|---------------------------|----------------------|
E|---------------------------|----------------------|

So Basically the song goes a lil' something like this!

Intro:
E|----------|---------|
B|----------|---------|
G|----------|---------|
D|--7----7--| Riff 1,-|
A|--5----5--|---------|
E|----------|---------|

Verse 1:
Riff 1 Riff 1
Here we go round & round State your case and then sit down.
Riff 1 Riff 2 Riff 1
Tell me why you want to go, I don't love you anymore.

Verse 2:
Riff 1 Riff 1
Here you go mad again Tell me that your just a friend.
Riff 1 Riff 2
Tell me something I don't know I don't love you anymore
I don't love you anymore, yeah.

Chrous:
Fm D
When I do go, I'll let you know.
Fm
It might hurt you, but I don't think so.

Isaak Chris - Round And Round аккорды

guitar chord D
guitar chord Fm

Разбор Isaak Chris - Round And Round на гитаре

1 Звезда2 Звезды3 Звезды4 Звезды5 Звезд (Пока оценок нет)
Загрузка...

Добавить комментарий

Ваш адрес email не будет опубликован. Обязательные поля помечены *