Isaak Chris – Go Walkin Down There

шрифт
Print this page
2021-05-20 Isaak Chris – Go Walkin Down There
Main Riff:
E|-----------------------------------------------|
B|--------------------2----------------------2-2-|
G|-----------0------2---2-----------0------2---2-|
D|---------2------2---------------2------2-----2-|
A|----2--3------0------------2--3------0---------|
E|--0----------------------0---------------------|
 
Riff 1:           Riff 2:
E|------------| |-----------|
B|------------| |-----------|
G|------------| |-----------|
D|------------| |-----------|
A|--2-0-------| |--2-0------|
E|-------3-2--| |-------3-0-|

Verse 1:
Em C A Em C A
I go walking down there, I go searching down there,
Em C A Em C A
there's nothing left for you and me.
Em C A Em C A
I go walking down there, I go searching down there,
Em C A G Riff 1
but nobody there remembers me.

Bridge:
Em B Em C
It dosen't matter now to me, 'cause I lost my baby.
Em B Em C B Riff 2
Nothing means that much to me, without my baby anyway.

Chrous:
Em C A Em C A Em C A Em C A
Oh, Oh, Look at all you lucky people think of all the things 
you do.
Em C A Em C A
Look at all you happy people, wish I could be like you.
Em C A Em C A Em C A
Oh, Oh, Oh.

Verse 2:
Em C A Em C A
I go walking down there, I go searching down there,
Em C A G Riff 1
There's nothing left for you and me.

Bridge:
Em B Em C
It dosen't matter now to me, 'cause I lost my baby.
Em B Em C B Riff 2
Nothing means that much to me, without my baby anyway.

Chrous:
Em C A Em C A Em C A Em C A
Oh, Oh, Look at all you lucky people think of all the things 
you do.
Em C A Em C A
Look at all you happy people, wish I could be like you.
Em C A Em C A
Look at all your smiling faces, think of all the things you've done
Em C A Em C A
Look at all you laughing people, and I've lost my only one.
Em C A Em C A Em C A
Oh, Oh, Oh.

(Repeate main riff with chords end on Em)    

Isaak Chris - Go Walkin Down There аккорды

guitar chord A
guitar chord B
guitar chord C
guitar chord Em

Разбор Isaak Chris - Go Walkin Down There на гитаре

1 Звезда2 Звезды3 Звезды4 Звезды5 Звезд (Пока оценок нет)
Загрузка...

Добавить комментарий

Ваш адрес email не будет опубликован. Обязательные поля помечены *