IOWA – Весна

шрифт
Print this page
2021-04-16 IOWA – Весна
Intro: Bm D A Em
       Bm D A Em/G

   Bm             D                    A           Em
1|------------------------------------------------------------
2|-------2h3p2------------------------------------------------
3|----------------4----------2-----------------6-----------0--
4|---4-----------------2h4-----4----------7-----------2-------
5|-2----------------5---------------2-------------------------
6|----------------------------------------5-----------0-------

   Bm             D                    A           Em/G
1|------------------------------------------------------------
2|-------2h3p2------------------------------------------------
3|----------------4----------2-----------------6-----------0--
4|---4-----------------2h4-----4----------7-----------2-------
5|-2----------------5---------------2-------------------------
6|----------------------------------------5-----------3-------

Bm               D                     A Em
Мне уже не стоять, мне только плыть всегда.
Bm               D           A Em
Мне только даль и вода без дна.
Bm               D           A Em
Не лететь. Мне только так всегда
 Bm               D    A Em
Мне только холода. Одна.

Припев:
G          A           Bm   
Тесно мне в этом воздухе, (акцентируем слабую долю)
 F#m           G A         
На мокром порохе.
      Bm
Взрываться.
G          A          Bm
Только кидают под ноги
  F#m       G       Bm (отсюда как вступление)
Морские шорохи. Весна.

Мне уже не петь под взмахом плавника.
Несет моя река века.
Не танцевать у ветра на руках.
Устала в парусах засыпать.

Но тесно мне в этом воздухе,
На мокром порохе.
Взрываться.
Только кидают под ноги
Морские шорохи. Весна (2р)

Мысли. Им слишком тесно.
И я листаю картинки в моей голове.
Я на траве в пальто босиком, из рук яблоко, 
возле дерева туман из веток спелыми.
Это картинки не меняются, меняется пульс.
Но это волосы мокрые, я под дождем стою.
Сильно качает палуба. Жду когда смоет.
Стану, как они с песочным ртом.
Буду встречать волну и солнце за белым бортом.. и весну

?Тесно мне в этом воздухе,
На мокром порохе.
Взрываться тесно.
Только кидают под ноги
Морские шорохи. Весна

IOWA - Весна аккорды

guitar chord A
guitar chord Bm
guitar chord D
guitar chord Em
guitar chord G
guitar chord Em/G
guitar chord F#m

Разбор IOWA - Весна на гитаре

1 Звезда2 Звезды3 Звезды4 Звезды5 Звезд (Пока оценок нет)
Загрузка...

Добавить комментарий

Ваш адрес email не будет опубликован. Обязательные поля помечены *