Green Day – Stray Heart

шрифт
Print this page
guitar chord A
guitar chord Am
guitar chord B
guitar chord C
guitar chord D
guitar chord E
guitar chord Ab
guitar chord Abm
guitar chord C#m
2020-08-24 Green Day – Stray Heart
Intro: E

E               Ab       C#m
I lost my little baby with a stray heart
 A      E
Went to another
A      B
Can you recover baby
E                  Ab       C#m
Oh you're the only one that I'm dreamin' of
A         E
Your precious heart
A      B         Abm
Was torn apart by me and you

Abm       C#m
You're not alone
       A   B     E
Oh oh and I'm where I belong 
Abm     C#m
We're not alone 
        A             Am (hold)    C D
Oh oh I'll hold your heart and never let Go 

E         Abm
Everything I want 
         A
I want from you 
     Am
But I just can't have you 

E         Abm
Everything I need
         A
I need from you 
     Am
But I just can't have you

E

E
I've said it a thousand times 
   Ab        C#m
And now a thousand one
A        E
We'll never part 
A         B         E
I'll never stray again from you

E
This dog is destine
     Ab       C#m
for a home to your heart
A        E
We'll never part 
A         B         Abm
I'll never stray again from you

Abm       C#m
You're not alone
       A   B     E
Oh oh and I'm where I belong 
Abm     C#m
We're not alone 
        A             Am (hold)    C D
Oh oh I'll hold your heart and never let Go 

E         Abm
Everything I want 
         A
I want from you 
     Am
But I just can't have you 

E         Abm
Everything I need
         A
I need from you 
     Am
But I just can't have you

Соло:
  B   F#5 B     A B   A B
e|---/7---------/7--------11-----13^14--|
B|---------7----------------------------|
G|--------------------------------------|
D|--------------------------------------|
A|--------------------------------------|
E|--------------------------------------|

   E          Ab   C#m     A     E     A     B 
e|--------------------------------------------------------------|
B|--5-5-5--5-5-55-5-4-44--4/5-555---5-4-2-0-/5-4-2-0-2-2-2-2-0--|
G|--------------------------------------------------------------|
D|--------------------------------------------------------------|
A|--------------------------------------------------------------|
E|--------------------------------------------------------------|

   E          Ab   C#m     A  E  A   B 
e|-------------4h7-------------------------------------|
B|--5-5-5--5-5-----5-4-4-4-4h5-5555-5~--5~--5~---5^7~--|
G|-----------------------------------------------------|
D|-----------------------------------------------------|
A|-----------------------------------------------------|
E|-----------------------------------------------------|

Abm       C#m
You're not alone
       A   B     E
Oh oh and I'm where I belong 
Abm     C#m
We're not alone 
        A             Am    C D
Oh oh I'll hold your heart and never let Go 

E         Abm
Everything I want 
         A
I want from you 
     Am
But I just can't have you

E         Abm
Everything I need
         A
I need from you 
     Am
But I just can't have you

E         Abm
Everything I want 
         A
I want from you 
     Am
But I just can't have you

E         Abm
Everything I need
         A
I need from you 
     Am
But I juuuuuuuuuuuust..
Am 
Just can't have you

Outro: E     

Green Day - Stray Heart аккорды

guitar chord A
guitar chord Am
guitar chord B
guitar chord C
guitar chord D
guitar chord E
guitar chord Ab
guitar chord Abm
guitar chord C#m

Разбор Green Day - Stray Heart на гитаре

1 Звезда2 Звезды3 Звезды4 Звезды5 Звезд (Пока оценок нет)
Загрузка...

Добавить комментарий

Ваш адрес email не будет опубликован. Обязательные поля помечены *