Gorillaz – Tomorrow Comes Today

шрифт
Print this page
2021-05-05 Gorillaz – Tomorrow Comes Today
Intro:
1------------------------------
2--7--10--7--10--7--10--12--12-
3------------------------------

 Am                Em
Everybody here with me
 Am              Em 
Got no camera to see
 Am                             Em
Don´t think i´m not all in this world
 C                     Em
The camera won´t let me go
 C                               Em
And the verdict doesn´t love our soul
 C                       Am
The digital won´t let me go

Chorus:
Am
Yeah Yeah Yeah
Dm
I´ll pay (yeeah)
G6
When tomorrow
F
Tomorrow comes today

Solo:
1----------------------------------
2--7--10--7--10--7--10--12--7------x2 
3----------------------------------

1-------------------------------------------------------
2--3--5--3--5--3--5--7--3-------3--5--3--5--3--5--3--0--
3-------------------------------------------------------

 Am               Em
Stereo i want it all
 Am                   Em
It´s taken me far too long
 Am                             Em
Don´t think i´m not all in this world
 C                             Em
I don´t think i´ll be here too long
 C                             Em
I don´t think i´ll be here too long
 C                             Am
I don´t think i´ll be here too long

Chorus:
Am
Yeah Yeah Yeah
Dm
I´ll pay (yeeah)
G6
When tomorrow
F
Tomorrow comes today

Solo:
1----------------------------------
2--7--10--7--10--7--10--12--7------x2 
3----------------------------------

1-------------------------------------------------------
2--3--5--3--5--3--5--7--3-------3--5--3--5--3--5--3--0--
3-------------------------------------------------------

Gorillaz - Tomorrow Comes Today аккорды

guitar chord Am
guitar chord C
guitar chord Dm
guitar chord Em
guitar chord F
guitar chord G6

Разбор Gorillaz - Tomorrow Comes Today на гитаре

1 Звезда2 Звезды3 Звезды4 Звезды5 Звезд (Пока оценок нет)
Загрузка...

Добавить комментарий

Ваш адрес email не будет опубликован. Обязательные поля помечены *