Eagles – Take It Easy

шрифт
Print this page
2021-02-17 Eagles – Take It Easy
Intro: G C/G Am7/G
       G C/G Am7/G

G                   G
Well, I'm a runnin' down the road, 
G
Tryin' to loosen my load,
                        D  C
I've got seven women on my mind.
G                       D
Four that wanna own me, two that wanna stone me,
 C                         G
One says she's a friend of mine. 

Chorus:
        Em            C    G 
Take it easy, take it ea - sy, 
              Am                C     
Don't let the sound of your own wheels 
           Em 
Drive you crazy. 
       C                    G  
Lighten up while you still can, 
            C           G 
Don't even try to understand, 
            Am                 C    
Just find a place to make your stand 
              G 
And take it easy. 
 
            G 
Well, I'm a standin' on a corner in Winslow, Arizona 
                D        C 
And such a fine sight to see: 
       G                   D 
It's a girl, my Lord, in a flat bed Ford 
        C                      G 
Slowin' down to take a look at me. 
         Em   D             C     G 
Come on, ba - by, don't say may - be. 
        Am                  C            Em 
I gotta know if your sweet love is gonna save me. 
       C               G  
We may lose and we may win 
                C              G 
Though we will never be here again. 
        Am               C               G 
So open up, I'm climbin' in, so take it easy. 
 
Solo: G D C | G D C G 
      Em C G | Am C G 
 
            G 
Well, I'm a runnin' down the road, 
C
Tryin' to loosen my load, 
                       D     C 
Got a world of trouble on my mind. 
G                       D 
Lookin' for a lover who won't blow my cover, 
      C          G 
She's so hard to find. 

Chorus:
        Em            C    G 
Take it easy, take it ea - sy, 
              Am                C      
Don't let the sound of your own wheels 
          Em 
Make you crazy. 
         C    G             C     G 
Come on, ba - by, don't say may - be. 
        Am                 C             G 
I gotta know if your sweet love is gonna save me. 
 
C G 
C G 

C              G  G9  C 
Oh, we got it ea  -  sy, 
                  G  G9  C Em 
we oughta take it ea  -  sy. 
 
_______________________________
 
Intro:
e|-3------------|-3-------------|-3-|
B|-3------------|-1-------------|-1-| 
G|-0------------|-0-------------|-2-| x2 
D|-0------------|-2-------------|-0-| 
A|--------------|---------------|---| 
E|--------------|---------------|---| 
 
     1     1    1 
    +     +    +      +         +  +  + 
|-----------------------------|--------|
|-----------------------------|--------|
|---7-----7----7--------------|--------|
|---7^----7^---7^p5-----------|--------|
|-------------------7p5-------|--------|
|-----------------------6p5-2-|-3~~~~~-| 
                                 Well I'm a runnin' down the road.. 

After the 1st verse play this: 
     1     1    1 
    +     +    +          + 
|---------------------------------| 
|---------------------------------| 
|---7-----7----7---7--------------| 
|---7^----7^---7^--7^p5-----------| 
|-----------------------7p5-------| 
|---------------------------6p5-3-| 
                        Well, I'm a standin'... 
 
Solo: 
G                                                                     D7 
|-------3-3---3----3-3-3-3---------3-3-3------------|---------------------| 
|-------3-3---3----3-3-3-3/5-------3-3-3--31--0-0-0-|-1/3----3----3/1-----| 
|-2/4-------4------------------4----------42--0-0-0-|-2/4----4----4/2---0-| 
|---------------------------------------------------|---------------------| 
|---------------------------------------------------|---------------------| 
|---------------------------------------------------|---------------------| 
 
      C                                          G          
|--------|---------------------------------------------------------------| 
|-1------|----------------1-------------1----1///3---3-----------31----0-| 
|-2---0--|----------------0-------------0----2///4-------4~~~~---42----0-| 
|--------|------0--0--2-------------2------------------------------------| 
|--------|---------------------------------------------------------------| 
|--------|---------------------------------------------------------------| 
 
  D                                C                G 
                                              1     1 
|-------------------------------------------------------| 
|-------------10------------------------8-----10^---10^-| 
|-2///////11-------11~~~~-119--7--7/9-----9-------------| 
|-------------------------------------------------------| 
|-------------------------------------------------------| 
|-------------------------------------------------------| 
 
                                      Em 
     1     1      1    1 
|----------------------------10/12--|---12-------12--12--10h12-| 
|-10^---10^----10^--10^p8----10/12--|---12-------12--12--10h12-| 
|-----------------------------------|--------------------------| 
|-----------------------------------|--------------------------| 
|-----------------------------------|--------------------------| 
|-----------------------------------|--------------------------| 
 
             D                        C                        G 
                       1 1/2                             1 (

Eagles - Take It Easy аккорды

guitar chord Am
guitar chord C
guitar chord D
guitar chord Em
guitar chord G
guitar chord D7
guitar chord Am7/G
guitar chord C/G

Разбор Eagles - Take It Easy на гитаре

1 Звезда2 Звезды3 Звезды4 Звезды5 Звезд (Пока оценок нет)
Загрузка...

Добавить комментарий

Ваш адрес email не будет опубликован. Обязательные поля помечены *