Дельфин – Надя

шрифт
Print this page
2021-04-24 Дельфин – Надя
Tunning: Drop D (DADGBe)

Intro:
   Cm               Ab
1|------------------------------------|
2|------------------------------------|
3|------5-5-3----------7-bend-1/2-(8)-|
4|----5-------5-----------------------|
5|--3---------------------------------|
6|------------------6-----------------|

   Cm               Ab
1|----------------------------|
2|----------------------------|
3|------5-3-5-----------8-8-7-|
4|----5-------5---------------|
5|--3-------------------------|
6|------------------6---------|

    Cm              Ab
1|----------------------------------|
2|------------------------------6p4-|
3|-----5-5-3-5---------7p5--8p5-----| 
4|----5-----------------------------|
5|--3-------------------------------|
6|-----------------6----------------|

    Cm              Ab
1|------------------------|
2|------------------------|
3|------5-3-5-----------8-|
4|----5-------5-----------|
5|--3---------------------|
6|-----------------6------|

    Gm       F       Eb
1|-------------------------|
2|------3------------------|
3|----3--------2---------3-|
4|---------------------5---|
5|-------------------------|
6|--5--------3-------1-----|

 Cm
 Я сука рыжая с ободранным хвостом
 Ab
 Мой ужин - снег, мои щенки на дне канала
 Cm
 Я горло резала обломанным клыком
 Ab
 Я остывающую кровь лакала.
 Cm
 Меня пинали сотни разных ног
 Ab
 Мне в морду тыкали горящие поленья
 Cm 
 Я пью из луж промасленных дорог
 Ab 
 Меня не видящего неба отраженья.

    Gm       F              Eb
1|---------------------------------------|
2|------3--------1-----------------------|
3|----3--------2------2p0----------3---3-|
4|----------------------------5----------|
5|---------------------------------------|
6|--5--------3--------------1------------|

  Bb              Ab
1|---------------------------------|
2|---------------------------------|
3|----------7--------------------5-|
4|---------------------------------|
5|---------------------------------|
6|-8---------------6---------------|
    Ища тепла в дыхании сточных вод

  Cm
1|------------|
2|----------4-|
3|------------|
4|------------|
5|-3----------|
6|------------|
     Безвольно волоча поломанную лапу

 Bb                   Ab
 Я думала о том, когда за мной придет 

   Cm
1|----------------------------------3-|
2|---------4--------------------------|
3|------------------------------------|
4|------------------------------------|
5|-3----------------------------------|
6|------------------------------------|
Покой из мягкой тишины уложит вату

  Bb                    Ab
1|---------------------------------------|
2|---------------6---------------------4-|
3|-------------7---------------------5---|
4|-----------8---------------------6-----|
5|---------------------------------------|
6|-8---------------------6---------------|
    Я думала о том, что дети это зло

   Cm
1|-----------------3-|
2|---------------4---|
3|-------------------|
4|-------------------|
5|-3-----------------|
6|-------------------|
И мир для них лишь бабочка на острие булавки

Bb                         Ab
 Но я прощала их всегда за то

        Gm
1|-----------------------------------|
2|---------------------------------3-|
3|--------------3--------------------|
4|-----------------------------------|
5|-----------------------------------|
6|-------5---------------------------|
Что иногда они приют давали шавке.

    F          Eb
1|-----------------------------|
2|---------1-------------------|
3|----2-----------0------------|
4|---------------------------3-|
5|-----------------------------|
6|--3----------1----------0----|

Cm
 Я слушала однажды дождь, и он сказал мне
Ab
 Что эти капли были влагой моря
Cm
 Согретым солнцем среди дивных скал

  Ab              
1|------------------------------|
2|---------------3------------4-|
3|-------------------5----------|
4|------------------------------|
5|------------------------------|
6|-6----------------------------|
     В нем можно утопить любое горе.

 Cm
 И я пошла сквозь голод долгих дней

  Ab                                    
1|-------------------------------------------------------|
2|---------------6---------------------------8-slide-off-|
3|-------------7---------------------------7-------------|
4|-------------------------------------------------------|
5|-------------------------------------------------------|
6|-6-----------------------------------------------------|
   К заветным берегам единственной надежды

 Cm
 Но становилось только холодней

    Fm
1|------------------------------------------------------|
2|------------------------------------------------------|
3|--1---------------------------------------------------|
4|------------------------------------------------------|
5|------------------------------------------------------|
6|--3----------------------------5----------3---------1-| 
      И море оказалось снежным.

   Cm               Ab
1|------------------------------------------------|
2|------------------------------------6-slide off-|
3|------5-3-5-----------7-------------------------|
4|----5-------------------------------------------|
5|--3---------------------------------------------|
6|------------------6-----------------------------|

    Cm              Ab
1|----------------------------------------------------|
2|---------------------------------------/8-slide off-|
3|------5-3-5-----------7p5-----8---------------------| 
4|----5-----------------------------------------------|
5|--3-------------------------------------------------|
6|------------------6---------6------6----------------|

    Cm               Eb
1|-----------------------------------------|
2|--------------------------8p6----------6-|
3|------5-3-5-------------8-----7---0------|
4|----5-------5-------------------8--------|
5|--3----------------6----------------6----|
6|-----------------------------------------|

 Cm
 Я отдала бы всё за то, чтоб только быть
 Ab 
 Хоть чей нибудь, набитой мне Вселенной
 Gm 
 Чтобы в конце концов торжественно остыть
 F 
 В заботливых руках любви обыкновенной.

   Eb
1|-----------|
2|-----------|
3|---------0-|
4|-----------|
5|-----------|
6|-1---------|
    Я сука рыжая с ободранным хвостом.

   Eb
1|---------|
2|---------|
3|---—---0-|
4|---------|
5|---------|
6|---------|
   Мой ужин - снег, мои щенки на дне канала

Outro:
  Bb                   Ab                 Cm
1|------------------------------------------------|
2|------------------------------------4---------4-|
3|-----------7--------------------5----------5----|
4|-------------------------------6----------------|
5|----------------------------------------3-------|
6|-8-------------------6--------------------------|

  Bb                   Ab                 Cm
1|-----------------------------------------------------3-|
2|------------------------------4-----------------4------|
3|------------7---------------------5-----------5--------|
4|----------8-----------------6-------6------------------|
5|------------------------------------------3------------|
6|-8------------------6----------------------------------|

  Bb                   Ab                   Cm
1|----------------------------------------------------3-|
2|-------------/8-----------------6----------------4----|
3|----------7-------------------5-----------------5-----|
4|------------------------------------------------------|
5|------------------------------------------3-----------|
6|-8--------------------6-------------------------------|

  Bb               Ab              Gm
1|-------------------------------------|
2|-------------------------------------|
3|----------7---------------5--------3-|
4|-------------------------------------|
5|-------------------------------------|
6|-8----------------6---------------5--|

   Cm        Bb         Ab           Gm
1|-------------------------11-10-----10-----x-|
2|------------------------------------------x-|
3|---------------10-------8--7-------7------x-|
4|--10---10-8-------------------------------x-|
5|--10---10-8-------------------------------x-|
6|--10---10-8----------6--------------5-----x-|
[tamburin]

Дельфин - Надя аккорды

guitar chord Cm
guitar chord F
guitar chord Fm
guitar chord Gm
guitar chord Ab
guitar chord Eb
guitar chord Bb

Разбор Дельфин - Надя на гитаре

1 Звезда2 Звезды3 Звезды4 Звезды5 Звезд (Пока оценок нет)
Загрузка...

Добавить комментарий

Ваш адрес email не будет опубликован. Обязательные поля помечены *