Coldplay – Clocks

шрифт
Print this page
2021-01-05 Coldplay – Clocks
Capo 1

Verse (count from Capo):
     D   Am   C     Em 
e---------- -----------
B----3---1----1-----0--
G----2---2----0-----0--
D----0---2----2-----2--
A----------------------
E----------------------

'You Are' Part:
     D  Am7   C    Em 
e----2---3----0-----0--
B----3---1----1-----0--
G----2---0----0-----0--
D----0---2----2-----2--
A--------0--- 3-----2--
E----------------------

'Nothing Else Compares' Part:
     F   C   Em 
e----1---0----0----
B----1---1----0----
G----2---0----0----
D----3---2----2----
A----3---3--- 2----
E----1---0----0----

Coldplay - Clocks аккорды

guitar chord Am
guitar chord C
guitar chord D
guitar chord Em
guitar chord F
guitar chord Am7

Разбор Coldplay - Clocks на гитаре

1 Звезда2 Звезды3 Звезды4 Звезды5 Звезд (Пока оценок нет)
Загрузка...

Добавить комментарий

Ваш адрес email не будет опубликован. Обязательные поля помечены *