Coldplay – Billie Jean

шрифт
Print this page
guitar chord B
guitar chord Bm
guitar chord D
guitar chord F
guitar chord C#m
2020-09-11 Coldplay – Billie Jean
Riff А   
e|--------------------------| 
B|--------------------------| 
G|--------------------------|  Repeat 12 times. 
D|--------------------------|  You can mute the notes if 
A|---10----8-10-8-----------|  that sounds better to you. 
E|------10--------10-8-10---| 
 
Then the next riff comes in, after Chris Martin sings: 
'She said I'm the one' in the 1st verse. 
 
Riff В 
e|--------------------------| 
B|--------------------------| 
G|--------------------------|  Play this riff 2 times. 
D|---10----8-10-8-----------| 
A|------10--------10-8-10---| 
E|--------------------------| 
 
After Riff B, play Riff А again.  
  
This is the part of Will in the verse:  
     Bm   C#m     D  C#m  
e|--------------------------| 
B|----3---5-------7---5-----| 
G|----4---6-------7---6-----|   Repeat the whole verse, 
D|----4---6-------7---6-----|   Listen to the song for the rhythm. 
A|----2---4-------5---4-----| 
E|--------------------------| 
 
OR 
 
e|----2---4-------5---4-----| 
B|----2---4-------5---4-----| 
G|----2---4-------6---4-----|   Or you can play this. But I don't 
D|--------------------------|   believe this is the way Will 
A|--------------------------|   plays it. 
E|--------------------------| 
 
The Outro (solo) by John Buckland: 
               F B               F B  
e|-----------------|-----------------| 
B|-----------------|-----------------| 
G|---5-5h7-5---5h7-|----5h7-5---5h7--|  Repeat 7 times. 
D|-----------8-----|--8-------8------| 
A|-----------------|-----------------| 
E|-----------------|-----------------| 
 
e|---------------| 
B|---------------| 
G|-----5h7------| 
D|---8-----------| 
A|---------------| 
E|---------------|

Coldplay - Billie Jean аккорды

guitar chord B
guitar chord Bm
guitar chord D
guitar chord F
guitar chord C#m

Разбор Coldplay - Billie Jean на гитаре

1 Звезда2 Звезды3 Звезды4 Звезды5 Звезд (Пока оценок нет)
Загрузка...

Добавить комментарий

Ваш адрес email не будет опубликован. Обязательные поля помечены *