BRUTTO – Папяроска

шрифт
Print this page
2021-02-28 BRUTTO – Папяроска
Табулатура вступления:
   С
1|----------------|----------
2|-1--1-3-1h3p1-0-|-1--1--1--
3|--0--0----------|--0--0--2- x2
4|---2------------|---2--2---
4|-3--------------|-3--------

Припев (бой "шестёрка"): x2
C
неба – колеру цёплага воску
G
цяжкую вільгаць цягне патроху
Am        Dm
анархісту дай папіроску
F
выпраўляючыся ў дарогу

Проигрыш:
(использовать G как "педаль", все аккорды далее с баррэ*)
Am(V) C(VIII) B(VII) G(III)
Во-о-о-о
Am(V) C(VIII) B(VII) G(III)
Во-о-о-о

Первый куплет:
(играется так же, как и проигрыш, но с вариациями в аккордах, 
без педали и, опционально, с небольшим глушением правой рукой)
Am
вось цягнікамі расклады вабяць
C                 G
вось алькаголікаў дружныя пыскі
Am
як зімаваць яму стромна мабыць
C          C B G
без каханьня і без прапіскі

Am
можа і ён патроху прывыкне
C                G
не кульгацьме й ног не парэжа
Am
пара зацяжак – і цалкам зьнікне
C    C B G
ў нетрах правабярэжжа

Припев: х2
C
неба – колеру цёплага воску
G
цяжкую вільгаць цягне патроху
Am        Dm
анархісту дай папіроску
F
выпраўляючыся ў дарогу

Второй куплет:
(глушение струн правой рукой можно время от времени отпускать, 
следуя за ритмом)
Am
і прарастуць красамоўства кветкі
C              G
поштай і ў друку – добрыя людцы!
Am
бо ўжо такія апошнія сьведкі
C     C B G
недаробленых рэвалюцый

Am
неба набракне нібы рашчына
C                  G
будзеш каціць нібы ў вырай нечы
Am
й на кожным пэроне сваёй айчыны
C     C B G
адбівацца ад паражнечы

Припев: х2
(первый раз играть тише и с одним-двумя ударами по струнам 
на строку)
C
неба – колеру цёплага воску
G
цяжкую вільгаць цягне патроху
Am        Dm
анархісту дай папіроску
F                      C
выпраўляючыся ў дарогу

Проигрыш**: x2
C G Am F

Припев: х2
C
неба – колеру цёплага воску
G
цяжкую вільгаць цягне патроху
Am        Dm
анархісту дай папіроску
F
выпраўляючыся ў дарогу

Проигрыш:
C
   В дарогу!
G
   В дарогу!
Am
   В дарогу!
F            C
   В дарогу! Гей!

* Табулатура выходит такая:
   Am                                      C                     B   G
4|-7-7-7-0-|-7-7-7-0-|-7-7-7-0-|-7-7-7-0-|-10-10-10-0-|-10-10-10-9-|-5-5-5-0-|-5-5-5-0-|
5|-7-7-7-0-|-7-7-7-0-|-7-7-7-0-|-7-7-7-0-|-10-10-10-0-|-10-10-10-9-|-5-5-5-0-|-5-5-5-0-|
6|-5-5-5-0-|-5-5-5-0-|-5-5-5-0-|-5-5-5-0-|-8--8--8--0-|-8--8--8--7-|-3-3-3-0-|-3-3-3-0-|

** Табулатура такая (x - глушение левой рукой), 
желательны вариации ритма при исполнении:
   C                                         G
4|-10-x-x-10-x-x-10-x-|-10-x-x-10-x-x-10-x-|-5-x-x-5-x-x-5-x-|-5-x-x-5-x-x-5-x-|
5|-10-x-x-10-x-x-10-x-|-10-x-x-10-x-x-10-x-|-5-x-x-5-x-x-5-x-|-5-x-x-5-x-x-5-x-|
6|-8--x-x-8--x-x-8--x-|-8--x-x-8--x-x-8--x-|-3-x-x-3-x-x-3-x-|-3-x-x-3-x-x-3-x-|
 Am                                  F
4|-7-x-x-7-x-x-7-x-|-7-x-x-7-x-x-7-x-|-3-x-x-3-x-x-3-x-|-3-x-x-3-x-x-3-x-|
5|-7-x-x-7-x-x-7-x-|-7-x-x-7-x-x-7-x-|-3-x-x-3-x-x-3-x-|-3-x-x-3-x-x-3-x-|
6|-5-x-x-5-x-x-5-x-|-5-x-x-5-x-x-5-x-|-1-x-x-1-x-x-1-x-|-1-x-x-1-x-x-1-x-|

BRUTTO - Папяроска аккорды

guitar chord Am
guitar chord B
guitar chord C
guitar chord Dm
guitar chord F
guitar chord G

Разбор BRUTTO - Папяроска на гитаре

1 Звезда2 Звезды3 Звезды4 Звезды5 Звезд (Пока оценок нет)
Загрузка...

Добавить комментарий

Ваш адрес email не будет опубликован. Обязательные поля помечены *