Браво – Девчонка шестнадцати лет

шрифт
Print this page
2019-12-23 Браво – Девчонка шестнадцати лет
      A      Аmaj7        F#m                Bm         Bm7+        D
e|------------------------------------------------------------------------
B|------------------------------------------------------------------------
G|----4--2--4--1----------4---2---4---1-------6---4--6--3--------1--2---4-
D|-2-------------------2------------------4------------------4-------------
A|----------------4--------------------------------------------------------
E|-------------------------------------------------------------------------
  Ах, эта  девчонка   шестнадцати    лет спешит  на концерт  ей нельзя  о-

       E         A       Amaj7      F#m                Bm         Bm7+
e|-------------------------------------------------------------------------
B|-------------------------------------------------------------------------
G|-2---1---------4-2---4---1---------4--2---4---1-------6--6--4-6--3-------
D|-----------2--------------------2-----------------4------------------4---
A|----------------------------4--------------------------------------------
E|-------------------------------------------------------------------------
  поздать.  Сжимая   в ладошке   заветный   билет,  ей тысячу   автогра-

       D          E7   Bm7      E7      Bm7           E7    A
e|-------------------------------------------------------П:----------------
B|----------------------------------------------------5--Р:----------------
G|-1---2--4---2---1-------4--6-6-76-4---------4----6-----И:-2---2--4--2--4-
D|---------------------7-----------------7---------------П:----------------
A|-------------------------------------------------------Е:----------------
E|-------------------------------------------------------В:----------------
  фов нужно   собрать.  Эту  девчонку   встретишь везде.   Ах,  куда же смо

                     F#m                       Bm
e|-------------------------------------------------------------------------
B|-----5----------------------------------------------------------7----3---
G|-2--------6--6--4--2----2--2---2---4-2-------4----6--6--4--6--4----------
D|----------------------------------------2--------------------------------
A|-------------------------------------------------------------------------
E|-------------------------------------------------------------------------
  трит шко ла, а-,а- Ах, девчонку   не узнать! Все фанаты   рок-н-ролла  с

   D                    E7  
e|------------------------
B|------------------------
G|-2-2-2--2--2---4---6--4-
D|------------------------
A|------------------------
E|------------------------
  ней хотели   станцевать.  

      A      Аmaj7        F#m                Bm         Bm7+        D
e|------------------------------------------------------------------------
B|------------------------------------------------------------------------
G|----4--2--4--1----------4---2---4---1-------6---4--6--3--------1--2---4-
D|-2-------------------2------------------4------------------4-------------
A|----------------4--------------------------------------------------------
E|-------------------------------------------------------------------------
  Но завтра,  увы,  ей придется  забыть  Все это,  и  в  школу  вернуться о-

       E         A       Amaj7      F#m                Bm         Bm7+
e|-------------------------------------------------------------------------
B|-------------------------------------------------------------------------
G|-2---1---------4-2---4---1---------4--2---4---1-------6--6--4-6--3-------
D|-----------2--------------------2-----------------4------------------4---
A|----------------------------4--------------------------------------------
E|-------------------------------------------------------------------------
    пять. Чтоб   снова  послушной  отличницей   быть,  И  сидя за  партой

       D          E7   Bm7      E7      Bm7           E7    A
e|-------------------------------------------------------П:----------------
B|----------------------------------------------------5--Р:----------------
G|-1---2--4---2---1-------4--6-6-76-4---------4----6-----И:-2---2--4--2--4-
D|---------------------7-----------------7---------------П:----------------
A|-------------------------------------------------------Е:----------------
E|-------------------------------------------------------В:----------------
    о  звездах   мечтать. Эту  девчонку  встретишь везде.  Ах, куда  же смо

                     F#m                       Bm
e|-------------------------------------------------------------------------
B|-----5----------------------------------------------------------7----3---
G|-2--------6--6--4--2----2--2---2---4-2-------4----6--6--4--6--4----------
D|----------------------------------------2--------------------------------
A|-------------------------------------------------------------------------
E|-------------------------------------------------------------------------
  трит школа,  а-,а- Ах, девчонку  не узнать! Все фанаты  рок-н-ролла   с

   D                    E7   К:          Amaj
e|---------------------------О:--------------------------------------------
B|---------------------------Н:------------5---5--7----7-----7----5--5--5--
G|-2-2-2--2--2---4---6--4----Ц:--------------------------------------------
D|---------------------------О:---2----4-----------------------------------
A|---------------------------В:--------------------------------------------
E|---------------------------К:--------------------------------------------
  ней хотели   станцевать.   А:  Только  с ней.  Ей - ей - ей - эй.

Браво - Девчонка шестнадцати лет аккорды

guitar chord A
guitar chord Bm
guitar chord D
guitar chord E7
guitar chord Bm7
guitar chord F#m
1 Звезда2 Звезды3 Звезды4 Звезды5 Звезд (Пока оценок нет)
Загрузка...

Добавить комментарий

Ваш адрес email не будет опубликован. Обязательные поля помечены *