Братья Грим – Ресницы

шрифт
Print this page
2021-02-16 Братья Грим – Ресницы
Проигрыш: Cm | Gm   

   Cm       Gm             Cm        Gm
E|--------------------------------------------------|
B|------4------3------6---------4-4-----3-------6-6-|
G|--------------------------------------------------|
D|--3-5----3-5----3-5-------3-5-----3-5-----3-5-----|
A|--------------------------------------------------|
E|--------------------------------------------------|
    Cm       Gm               Cm        
E|----------------------------------------|
B|------4------3------6---------4-4-----3-|
G|----------------------------------------|
D|--3-5----3-5----3-5-------3-5-----3-5---|
A|----------------------------------------|
E|----------------------------------------|

     Cm       Gm
    Губы у тебя
     Cm        Gm
    Вкусы миндаля,
     Ab      A#
    Алая петля
     Ab           Gm
    Дурит. У ну-ну-ну-у-у...

     Cm       Gm
    Слов не говоря,
     Cm       Gm
    Искусай меня.
     Ab         Bb
    Силы не жалей.
     Ab         Gm
    Дурака валяй.

Припев: 
 Fm        Bb           Cm
Хлопай ресницами и взлетай,
    Gm            Ab
Присниться не забывай,
 Ab            Bb
Туру-ту-ту-ту-дай 
 Ab           Gm
Туту-ту-ру-ту-дай.
 Fm        Bb           Cm
Хлопай ресницами и взлетай
    Gm        Ab
Синицею, иволгой.
 Ab            Bb
Туру-ту-ту-ту-дай 
 Ab           Gm
Туту-ту-ру-ту-дай.

Проигрыш:
   Cm       Gm             Cm        Gm
E|--------------------------------------------------|
B|------4------3------6---------4-4-----3-------6-6-|
G|--------------------------------------------------|
D|--3-5----3-5----3-5-------3-5-----3-5-----3-5-----|
A|--------------------------------------------------|
E|--------------------------------------------------|
    Cm       Gm               Cm        
E|----------------------------------------|
B|------4------3------6---------4-4-----3-|
G|----------------------------------------|
D|--3-5----3-5----3-5-------3-5-----3-5---|
A|----------------------------------------|
E|----------------------------------------|

     Cm       Gm
    У тебя глаза
     Cm       Gm
    Словно бирюза
     Ab         Bb
    Резко по газам
     Ab           Gm
    Вдарим ну-ну-ну.

     Cm       Gm
    Может быть и я, 
     Cm       Gm
    Вкусы миндаля.
     Ab         Bb
    И могу летать, 
     Ab         Gm
    Веками порхая.
 
Припев: 
 Fm        Bb           Cm
Хлопай ресницами и взлетай
    Gm            Ab
Присниться не забывай
 Ab            Bb
Туру-ту-ту-ту-дай 
 Ab           Gm
Туту-ту-ру-ту-дай.
 Fm        Bb           Cm
Хлопай ресницами и взлетай
    Gm         Ab
Синицею, иволгой.
 Ab            Bb
Туру-ту-ту-ту-дай 
 Ab           Gm
Туту-ту-ру-ту-дай.

  Fm        Bb Cm
Хлопай и взлетай
    Gm            Ab
Не забывай, не забывай
 Ab            Bb
Хлопай и взлетай
 Ab           Gm
Не забывай, не забывай, вай, вай

E|--13-13-----------------13-13-------------|
B|--------15-15-----------------15-15-------|
G|--------------13-12----12-------------12--|
D|------------------------------------------|
A|------------------------------------------|
E|------------------------------------------|

E|--------15---------15---|
B|-----13------13-15------|
G|--12--------------------|
D|------------------------|
A|------------------------|
E|------------------------|

  Fm        Bb Cm
Хлопай и взлетай
    Gm            Ab
Не забывай, не забывай
 Ab           Bb
Хлопай и взлетай
 Ab           Gm
Не забывай, не забывай, вай, вай

Братья Грим - Ресницы аккорды

guitar chord Cm
guitar chord Fm
guitar chord Gm
guitar chord Ab
guitar chord A#
guitar chord Bb

Разбор Братья Грим - Ресницы на гитаре

1 Звезда2 Звезды3 Звезды4 Звезды5 Звезд (Пока оценок нет)
Загрузка...

Добавить комментарий

Ваш адрес email не будет опубликован. Обязательные поля помечены *