Bon Jovi – Stay

шрифт
Print this page
2021-03-29 Bon Jovi – Stay
Intro:
---------------------------------------| 
-2-4-5-4-2-0---------------------------| 
---------------------------------------| 
---------------2-----4-6-7-6-4-2-------| 
---------------------------------------| 
---------------------------------------| 
 
---------------------------------------| 
-2-4-5-4-2-0---------------------------| 
---------------------------------------| 
---------------2-----4-6-7-6-4-0-------| 
---------------------------------------| 
---------------------------------------|  
 
 E                                  G#m  
Every singer's always singing about   someone else 
 A                      F#m  
Another bleading heart, another brand new start 
 E                             G#m  
But this time I'm singing all about myself 
  A                     Am  
I made it be so lonely, even my piano wants to cry 
 
 G#m                                             A  
These ams weren't there to hold you, when I was home 
I was miles away 
 G#m                                          A  
Now you got every right to go girl, but I'm standing here,  
 
    B           E  
I'm begging you stay 
 G#m  
Just a little longer 
              A  
You've always been the one who's stronger 
        Am  
I can't let you go 
 
    B           E  
I'm begging you stay 
 G#m  
Stay because I need you 
     A  
With every breath I breath you 
        Am  
I can't let you walk away 
 
 E                              G#m  
There are things I didn't ever   say or do 
     A                               F#m  
Like I would die without you, didn't mean I didn't want to 
 E                           G#m  
But every song I ever sang, I sang for you 
    A                          Am  
And every night away from you, knowing you'd be home's 
what got me through 
 
 G#m                             A  
Tore up all the pictures of our wasted yesterdays 
 G#m                    A  
Fighting for tomorrow, standing here 
 
    B           E  
I'm begging you stay 
 G#m  
Just a little longer 
              A  
You've always been the one who's stronger 
        Am  
I can't let you go 
 
    B           E  
I'm begging you stay 
 G#m  
Stay because I need you 
     A  
With every breath I breath you 
        Am  
I can't let you walk away 
 
Second Intro part + solo 
 
Solo: E - G#m - A - Am  
  
 G       Bm  
Stay, I know I've done you wrong 
        A  
It'd be easy to move on 
    G  
I'm telling you 
 
I'm begging you 
    F#  
I'm pleading 
 
I'm screaming 
 
 E    G#m  
Stay just a little longer 
              A  
You've always been the one who's stronger 
        Am  
I can't let you go 
 
    B           E  
I'm begging you stay 
 G#m  
Stay because I need you 
     A  
With every breath I breath you 
        Am  
I can't let you walk away 
 
E - G#m - A - F#m  
Staaay, come on, come on, come on, come on, come on 
 
 E     G#m  
Stay  just a little longer 
              A  
You've always been the one who's stronger 
        Am  
I can't let you walk away 
 
Outro: 
---------------------------------------| 
-2-4-5-4-2-0---------------------------| 
---------------------------------------| 
---------------2-----4-6-7-6-4-2-------| 
---------------------------------------| 
---------------------------------------| 
 
---------------------------------------| 
-2-4-5-4-2-0---------------------------| 
---------------------------------------| 
---------------2-----4-6-7-6-4-0-------| 
---------------------------------------| 
---------------------------------------|

Bon Jovi - Stay аккорды

guitar chord A
guitar chord Am
guitar chord B
guitar chord Bm
guitar chord E
guitar chord G
guitar chord F#
guitar chord F#m
guitar chord G#m

Разбор Bon Jovi - Stay на гитаре

1 Звезда2 Звезды3 Звезды4 Звезды5 Звезд (Пока оценок нет)
Загрузка...

Добавить комментарий

Ваш адрес email не будет опубликован. Обязательные поля помечены *