Bon Jovi – August 7 4:15

шрифт
Print this page
2021-04-07 Bon Jovi – August 7 4:15
Verse 1, 2 and Intro:
|--------0------------------------------------| 
|----------0-----------3--------0-------------| 
|------------0-------2--------0---0-----------| 
|-----2------------0--------2-----------------| 
|---2---------------------3-------------------| 
|-0-------------------------------------------| 
 
|--------0---------2-----0--------------------| 
|----------0---------3-----3---3--------------| 
|------------0---------2-----2---2------------| 
|-----2------------0--------------------------| 
|---2-----------------------------------------| 
|-0-------------------------------------------| 
 
Bridge: Asus2
 
Chorus (strummed): 
 G               C               G       D  
Tell me it was just a dream, August 7 4:15.  
 Em                            C               G      D  C  
God closed his eyes and the world got mean. August 7 4:15. 

Bon Jovi - August 7 4:15 аккорды

guitar chord C
guitar chord D
guitar chord Em
guitar chord G

Разбор Bon Jovi - August 7 4:15 на гитаре

1 Звезда2 Звезды3 Звезды4 Звезды5 Звезд (Пока оценок нет)
Загрузка...

Добавить комментарий

Ваш адрес email не будет опубликован. Обязательные поля помечены *