Blink 182 – What’s My Age Again

шрифт
Print this page
2021-02-07 Blink 182 – What’s My Age Again
Intro
e----------------------------------------------
b------11----------11---------11---------11----
g---11----11----11----11---11----11---11----11-
d-9--------------------------------------------
a------------9--------------------------------
E------------------------9---------11----------

Verse 1:
e--------------------------------------------------------------------
b------11----------11---------11---------11----------11---------11---
g---11----11----11----11---11----11---11----11----11----11---11----11
d-9---------------------------------------------9----------9---------
a------------9-------------------------------------------------------
E------------------------9---------9---------------------------------

Chorus:
e------------------------------------------------------------------------------------
b------------------------------------------------------------------------------------
g------6--6------8--8----4--4--4--4-------6--6-----8---4--4--4--4-------6--6-----8---
d-4----6--6------8--8----4--4--4--4---4---6--6-----8---4--4--4--4--4----6--6-----8---
a-4----4--4------6--6----2--2--2--2---4---4--4-----6---2--2--2--2--4----4--4-----6---
E-2-----------------------------------2----------------------------2-----------------

e------------------------------------------------------------------------------------
b------------------------------------------------------------------------------------
g-8--4--4--4--4---------6--6-----8--8--8--8--8--8--8--8--6--6--6--6--6--6--6--6--6---
d-8--2--2--4--4--4------6--6-----8--8--8--8--8--8--8--8--6--6--6--6--6--6--6--6--6---
a-6--2--2--2--2--4------4--4-----6--6--6--6--6--6--6--6--4--4--4--4--4--4--4--4--4-2-
E----------------2-------------------------------------------------------------------

Verse 2:
e------------------------------------------------------------------------------------
b------------------------------------------------------------------------------------
g------------------------------------------------------------------------------------
d------4--4--4--4--------------6--6--6--6--8--8--8-----4--4--4--4--------------------
a-(2)--2--2--2--2--4--4--4-----4--4--4--4--6--6--6--1--2--2--2--2--4--4--4-----------
E------------------2--2--2--0--------------------------------------2--2--2--0--------
--------------------------Palm Muted-------------------------------------|

e------------------------------------------------------------------------------------
b------------------------------------------------------------------------------------
g------------------------------------------------------------------------------------
d-6--6--6--6--8--8--8--------4--4--4--4--------------6--6--6--6--8--8--8-------------
a-4--4--4--4--6--6--6--1--1--2--2--2--2--4--4--4-----4--4--4--4--6--6--6--1----------
E----------------------------------------2--2--2--0----------------------------------
--------------------------Palm Muted-------------------------------------|

e------------------------------------------------------------------------------------
b------------------------------------------------------------------------------------
g------------------------------------------------------------------------------------
d-4--4--4--4--------------6--6--6--6--6--6--6--6--4--4--4--4--4--4--4--4-------------
a-2--2--2--2--4--4--4--4--4--4--4--4--4--4--4--4--2--2--2--2--2--2--2--2-------------
E-------------2--2--2--2-------------------------------------------------------------
--------------------------Palm Muted-------------------------------------|

Chorus:
e------------------------------------------------------------------------------------
b------------------------------------------------------------------------------------
g------6--6------8--8----4--4--4--4-------6--6-----8---4--4--4--4-------6--6-----8---
d-4----6--6------8--8----4--4--4--4---4---6--6-----8---4--4--4--4--4----6--6-----8---
a-4----4--4------6--6----2--2--2--2---4---4--4-----6---2--2--2--2--4----4--4-----6---
E-2-----------------------------------2----------------------------2-----------------

e------------------------------------------------------------------------------------
b------------------------------------------------------------------------------------
g-8--4--4--4--4---------6--6-----8--8--8--8--8--8--8--8--6--6--6--6--6--6--6--6--6---
d-8--2--2--4--4--4------6--6-----8--8--8--8--8--8--8--8--6--6--6--6--6--6--6--6--6---
a-6--2--2--2--2--4------4--4-----6--6--6--6--6--6--6--6--4--4--4--4--4--4--4--4--4-2-
E----------------2-------------------------------------------------------------------

Interlude:
e-------------------------------------------------------------------------------------
b----11------11---------11------11----------------------------------------------------
g--------11------11---------11------11------------------------------------------------
d-9------------------9---------------------------8 ^ 9-----------8 ^ 9-----------8 ^ 9
a-6-------------------------------------9--9--9---------9--9--9---------9--9--9-------
E-------------------------------------------------------------------------------------

e----------------------------------------------------------------------------------------
b----------------------------------------------------------------------------------------
g----------------------------------------------------------------------------------------
d----------11--------------------11--------------------11------------------------------11
a----8-------------8-------8---------------8--------8----------8--------8--------8-------
E-9-----9----9--9-----9--9----9------9--9-----9--9-------9--9-----9--9-----9--9-----9----

Verse 3:
e------------------------------------------------------------------------------------
b------------------------------------------------------------------------------------
g------6--6------8--8----4--4--4--4-------6--6-----8---4--4--4--4-------6--6-----8---
d-4----6--6------8--8----4--4--4--4---4---6--6-----8---4--4--4--4--4----6--6-----8---
a-4----4--4------6--6----2--2--2--2---4---4--4-----6---2--2--2--2--4----4--4-----6---
E-2-----------------------------------2----------------------------2-----------------

e------------------------------------------------------------------------------------
b------------------------------------------------------------------------------------
g-8--4--4--4--4---------6--6-----8--8--8--8--8--8--8--8--6--6--6--6--6--6--6--6--6---
d-8--2--2--4--4--4------6--6-----8--8--8--8--8--8--8--8--6--6--6--6--6--6--6--6--6---
a-6--2--2--2--2--4------4--4-----6--6--6--6--6--6--6--6--4--4--4--4--4--4--4--4--4-2-
E----------------2-------------------------------------------------------------------

Outro:
e-x 
b-1
g-3 Let Ring on this chord to finish
d-3 
a-1
E-x

___________________
Chords:
  F# C# D# B  Bsus2    
|-------------x-|
|-------------1-|
|----6--8--4--3-|
|-4--6--8--4--3-|
|-4--4--6--2--1-|
|-2-----------x-|

Blink 182 - What's My Age Again аккорды

guitar chord B
guitar chord C#
guitar chord D#
guitar chord F#

Разбор Blink 182 - What's My Age Again на гитаре

1 Звезда2 Звезды3 Звезды4 Звезды5 Звезд (Пока оценок нет)
Загрузка...

Добавить комментарий

Ваш адрес email не будет опубликован. Обязательные поля помечены *