Blink 182 – Going Away To College Live

шрифт
Print this page
2021-03-09 Blink 182 – Going Away To College Live
Capo 2ND FRET
THIS IS HOW TOM PLAYS IT ON A VIDEO ON MORPHEUS!
E----------------------
B----------------------
G-6-6-6-6-6-4-4-4-4-4--
D-7-7-7-7-7-7-7-7-7-7--  TIMES 2
A-0-0-0-0-0-0-0-0-0-0--
E-0-0-0-0-0-0-0-0-0-0--
E--------------------
B--------------------
G-2-2-2-2-2-4-4-4-4-4  TIMES 2 ( U CAN PLAY 0'S ON THE TOP
D-0-0-0-0-0-0-0-0-0-0  2 STRINGS IF U WANT IT MIGHT SOUND 
A-0-0-0-0-0-0-0-0-0-0  BETTER!)
E-0-0-0-0-0-0-0-0-0-0
   DO THIS OVER AGAIN!
E-----------------------------------------------
B-----------------------------------------------
G----------6------6-------6-------6-------------
D-----7------7------7-------7------------9-----9
A-0-0--0-0----0-0-----5-5-----5-5----7-7---7-7--
E-----------------------------------------------
 TIMES 2
THEN
E--
B--
G--
D-7
A-7
E-5
LET RING!
E--------------------------
B--------------------------
G-----------7-7-7-7-9-9-9-9
D-7-7-7-7-7-7-7-7-7-9-9-9-9
A-7-7-7-7-7-5-5-5-5-7-7-7-7
E-5-5-5-5-5----------------
TIMES 2
E------------------------------
B------------------------------
G-6-6-6-6-7-7-7-7--------------
D-*-*-*-*-*-*-*-*-7-7-7-7-2-2-2
A-4-4-4-4-5-5-5-5-7-7-7-7-2-2-2
E-----------------5-5-5-5-0-0-0
E
B
G---------7-7-7-7
D-4-4-4-4-7-7-7-7-7-7-7-7-2-2-2
A-4-4-4-4-5-5-5-5-7-7-7-7-2-2-2
E-2-2-2-2---------5-5-5-5-0-0-0
 THESE ARE IN ORDER AS HOW THEY COME IN THE SONG!

Blink 182 - Going Away To College Live аккорды

guitar chord B
guitar chord E

Разбор Blink 182 - Going Away To College Live на гитаре

1 Звезда2 Звезды3 Звезды4 Звезды5 Звезд (Пока оценок нет)
Загрузка...

Добавить комментарий

Ваш адрес email не будет опубликован. Обязательные поля помечены *