Би-2 – Вечная призрачная встречная

2019-06-20 Би-2 – Вечная призрачная встречная
Intro:
D|------11-11-------10-10---------8-8-------------|
A|-8-8---------8-8----------8-8---------8-----8---|
E|-----------------------------------------9------|

D|--------11-11-------10-10---------8-8-----------|
A|---9-9---------9-9----------9-9---------9-----9-|
E|-------------------------------------------9----|

D|--------11-11-------10-10---------8-8----------------||
A|-------------------------------------------9---------:|
E|--11-11-------11-11----E----11-11------11-----11-----||

Bbm
Я сам не свой, мой след потерян
F#
Я с головой в песчинках времени
D#m                         F
Упал на дно и метроном считает в тишине.

Bbm
Пока все ждут прихода истины
F#
Святая ложь звучит все искренней
D#m                         F
Не прячет взгляд и травит яд соблазн душу мне.

Проигрыш: Bbm C# F# D#m F

Bbm
Я сделал все и все оставил 
F#
В моей игре почти нет правил
D#m                         F
И мой герой не держит строй и лезет на рожон.

Bbm
Я сбыл мечты и откровения
F#
В руках судьбы мое спасение                            
D#m                         F
Мой главный нерв, продет в иглу предельно обнажен.

Припев:
Bbm                 C#
Вечная призрачная встречная
F#maj7                    D#m7                 F
Сможет уберечь меня обыденный сюжет всех религий
Bbm                  C#
Преданна мне и мною преданна
F#                  D#m7                       F
И сполна изведала рождение и смерть в каждом миге

Би-2 - Вечная призрачная встречная аккорды

guitar chord F
guitar chord C#
guitar chord D#m
guitar chord F#
guitar chord Bbm
1 Звезда2 Звезды3 Звезды4 Звезды5 Звезд (Пока оценок нет)
Загрузка...