Би-2 – Моя любовь

шрифт
Print this page
2019-08-22 Би-2 – Моя любовь
Вступление:
e-------------------------------------------------------------------------
a--0-3--0-3--5-7---7/1---0-3--0-3--5-7---10--10--7-8---8--8--10--7---5--3-
d-------------------------------------------------------------------------
g-------------------------------------------------------------------------
b-------------------------------------------------------------------------
e-------------------------------------------------------------------------
  
Bm
У героев стынет кровь,
Bm
Разбиваются и вновь
          Em
Идут ко дну,
          Bm 
Идут ко дну

Bm
Успокоит океан,
Bm
И расстелет по волнам
       Em
Свою вину, 
       Bm
Свою вину

Припев:
  тремоло            / быстро  / тремоло
e----3-----------------------------3------------------------
a-----------------2--2-4-5-------------------------------4--
d--5-----5-7-5-4-----------2-4-5-----5-7-5-4-4---4-4-2-0----
g-----------------------------------------------------------
h-----------------------------------------------------------
e-----------------------------------------------------------

C(III)       Bm
Кончится пленка
 C(III)      F#
Ты ждешь ребенка от меня 
Bm 
М-мм-мм-м,  М-мм-мм-м 
        Em
Моя любовь
        Bm 
Моя любовь

Bm
Уходили в плаванье
Bm
За чужие гавани
         Em
Вести войну,
        Bm
Вести войну

Bm
Но известно лишь волнам
Bm
Что оставит океан 
        Em
Тебя одну,
        Bm
Тебя одну

Соло:
e-------------------------------------------------
a-------------------------------------------------
d-------------------------------------------------
g------------------------------11-----6-6-7-4-3-0-
h----7---9------14-14-12-11-12--------------------
e--7---9----12------------------------6-6-7-3-2-0-

e------------------------------------------------
a------------------------------------------------
d------------------------------------------------
g--7-7-9--4-3-0----------------------------------
h------------------------------------15-14-12-11-
e--7-7-9--3-2-0-------12-14-15-14-12-------------

Би-2 - Моя любовь аккорды

guitar chord Bm
guitar chord Em

Разбор Би-2 - Моя любовь на гитаре

1 Звезда2 Звезды3 Звезды4 Звезды5 Звезд (Пока оценок нет)
Загрузка...

Добавить комментарий

Ваш адрес email не будет опубликован. Обязательные поля помечены *