Beatles – Twist And Shout

2020-02-14 Beatles – Twist And Shout
Intro & Verse:
                                D               G                      
 E------------------------------2----------------------------
 B------------------------------3----------------------------
 G------------------------------2----------------------------
 D------------------------0-----------------------0--------0-
 A------0-----2-----4-----------------------------2--------2-
 E------------------------------------------------3--------3-
                                                                     
     A                                                                
 E-----------------------------
 B---2-------------------------
 G---2-------------------------
 D---2-------------------------
 A---0-----0-----0-----0-----0-
 E-----------------------------
                                                                     
Verse: (same as Intro)
                                D               G                      
 E------------------------------2----------------------------
 B------------------------------3----------------------------
 G------------------------------2----------------------------
 D------------------------0-----------------------0--------0-
 A------0-----2-----4-----------------------------2--------2-
 E------------------------------------------------3--------3-
                                                                     
     A                                                                
 E-----------------------------
 B---2-------------------------
 G---2-------------------------
 D---2-------------------------
 A---0-----0-----0-----0-----0-
 E-----------------------------
 		
 Well shake it up baby now, twist and shout
 Come on come on come on come on baby , now work it on out
 Well work it on out, you know you look so good
 You know you got me goin` now, just like you knew you would
 
          Ahh            Ahh           Ahh             Ahh
 E---------------------------------------0--------------3------------
 B------------------------2--------------2--------------2------------
 G---------2--------------2--------------2--------------2------------
 D---------2-----2-----2--2-----2-----2--------2-----2---------------
 A---------0--0-----0--------0-----0--------0-----0------------------
 E-------------------------------------------------------------------
 
Verse 2:
                                D               G                      
 E------------------------------2----------------------------
 B------------------------------3----------------------------
 G------------------------------2----------------------------
 D------------------------0-----------------------0--------0-
 A------0-----2-----4-----------------------------2--------2-
 E------------------------------------------------3--------3-
                                                                     
     A                                                                
 E-----------------------------
 B---2-------------------------
 G---2-------------------------
 D---2-------------------------
 A---0-----0-----0-----0-----0-
 E-----------------------------

 Well shake it up baby now, twist and shout
 Come on come on come on come on baby , now work it on out
 You know you twist it little girl , you know you twist so fine
 Come on and twist a little closer now, and let me know that you`re mine 
 
Verse 3:
                                D               G                      
 E------------------------------2----------------------------
 B------------------------------3----------------------------
 G------------------------------2----------------------------
 D------------------------0-----------------------0--------0-
 A------0-----2-----4-----------------------------2--------2-
 E------------------------------------------------3--------3-
                                                                     
     A                                                                
 E-----------------------------
 B---2-------------------------
 G---2-------------------------
 D---2-------------------------
 A---0-----0-----0-----0-----0-
 E-----------------------------

 Well shake it up baby now, twist and shout
 Come on come on come on come on baby, now work it on out
 You know you twist it little girl, you know you twist so fine
 Come on and twist a little closer now, and let me know that you`re mine 

 Well shake it shake it shake it baby now
 E---------------------------------------0--------------3------------
 B------------------------2--------------2--------------2------------
 G---------2--------------2--------------2--------------2------------
 D---------2-----2-----2--2-----2-----2--------2-----2---------------
 A---------0--0-----0--------0-----0--------0-----0------------------
 E-------------------------------------------------------------------

 Well shake it shake it shake it baby now
 E---------------------------------------0--------------3------------
 B------------------------2--------------2--------------2------------
 G---------2--------------2--------------2--------------2------------
 D---------2-----2-----2--2-----2-----2--------2-----2---------------
 A---------0--0-----0--------0-----0--------0-----0------------------
 E-------------------------------------------------------------------

 Well shake it shake it shake it baby now
 E---------------------------------------0--------------3------------
 B------------------------2--------------2--------------2------------
 G---------2--------------2--------------2--------------2------------
 D---------2-----2-----2--2-----2-----2--------2-----2---------------
 A---------0--0-----0--------0-----0--------0-----0------------------
 E-------------------------------------------------------------------
 
Guitar Break:
 E-----------------------------------------------------
 B------------------------0-----3-----2-----------0----
 G---------2--------2-----------4-----2-----2--------2-
 D---------2--------2-----------------------2--------2-
 A-----------------------------------------------------
 E-----------------------------------------------------

Beatles - Twist And Shout аккорды

guitar chord A
guitar chord D
guitar chord G

Разбор Beatles - Twist And Shout на гитаре

1 Звезда2 Звезды3 Звезды4 Звезды5 Звезд (Пока оценок нет)
Загрузка...