Beatles – I Don’t Want To Spoil The Party

шрифт
Print this page
guitar chord C
guitar chord Em
guitar chord F
guitar chord G
guitar chord B7
2020-02-15 Beatles – I Don’t Want To Spoil The Party
Solo:
                                  G 
e|-------------------------------|-------------------------------|
B|--------0-------1-------2------|--------3----------3-----------|
G|--------0-------2-------3------|--------4----------4-----------|
D|-------------------------------|5------------------------------|
A|-------------------------------|-------------------------------|
E|-------------------------------|-------------------------------|

  C       G               C       G
e|-------------------------------|-------------------------------|
B|5-------3-------0-------1------|--------3-----------3----------|
G|5-------4-------0-------2------|------------4-----------4------|
D|-------------------------------|5------------------------------|
A|-------------------------------|-------------------------------|
E|-------------------------------|-------------------------------|

                                  G
e|-------------------------------|-------------------------------|
B|3-------0-------1-------2------|--------3----------3-----------|
G|4-------0-------2-------3------|--------4----------4-----------|
D|5------------------------------|5------------------------------|
A|-------------------------------|-------------------------------|
E|-------------------------------|-------------------------------|

  C                               D7/13
e|-------------------------------|-------------------------------|
B|5-------3----------------------|--------1-----------1----------|
G|5-------4-------0-------2------|--------------------2----------|
D|-------------------------------|4------------------------------|
A|-------------------------------|-------------------------------|
E|-------------------------------|-------------------------------|

                                  Em 
e|1----------1-------1-----------|-------------------------------|
B|1----------1-------1-----------|--------0----------0-----------|
G|2------------------2-----------|------------0-----------0------|
D|-------------------------------|2------------------------------|
A|-------------------------------|-------------------------------|
E|-------------------------------|-------------------------------|

  B7                              F
e|-------------------------------|-------------------------------|
B|0----------0---------------0---|0-h-1----1----------1----------|
G|2-------------------2----------|-------------2----------2------|
D|-----4-------------------------|-------------------------------|
A|-------------------------------|-------------------------------|
E|-------------------------------|-------------------------------|

  G                                G
e|-------------------------------|-------------------------------|
B|3-------0-------1------2-------|--------3----------3-----------|
G|4-------0-------2------3-------|--------4----------4-----------|
D|-------------------------------|-5-----------------------------|
A|-------------------------------|-------------------------------|
E|-------------------------------|-------------------------------|

  C       G               C       G
e|-------------------------------|-------------------------------|
B|5-------3-------0-------1------|--------3-----------3----------|
G|5-------4-------0-------2------|------------4-----------4------|
D|-------------------------------|5------------------------------|
A|-------------------------------|-------------------------------|
E|-------------------------------|-------------------------------|

e|3------------------------------|
B|3------------------------------|
G|-------------------------------|
D|-------------------------------|
A|-------------------------------|
E|-------------------------------|

Beatles - I Don't Want To Spoil The Party аккорды

guitar chord C
guitar chord Em
guitar chord F
guitar chord G
guitar chord B7
1 Звезда2 Звезды3 Звезды4 Звезды5 Звезд (Пока оценок нет)
Загрузка...

Добавить комментарий

Ваш адрес email не будет опубликован. Обязательные поля помечены *