Beatles – Getting Better

2020-02-10 Beatles – Getting Better
-------------------------------------------------------------------
  THE BEATLES - GETTING BETTER (Lennon/McCartney) From SGT PEPPER'S
                LONELY HEARTS CLUB BAND. Released on June 1st 1967.
-------------------------------------------------------------------
  Tabbed by:PJVillanueva
It's getting better all the time
I used to get mad at my school
The teachers who taught me weren't cool
You're holding me down, turning me round
Filling me up with your rules.
I've got to admit it's getting better
A little better all the time
I have to admit it's getting better
It's getting better since you've been mine.
Me used to be a angry young man
Me hiding me head in the sand
You gave me the word
I finally heard
I'm doing the best that I can.
I've got to admit it's getting better
I used to be cruel to my woman
I beat her and kept her apart from the things that she loved
Man I was mean but I'm changing my scene
And I'm doing the best that I can.
I admit it's getting better
A little better all the time
Yes I admit it's getting better
It's getting better since you've been mine
  Csus4        
e|3----- 3----- 3----- 3-----|3----- 3----- 3----- 3-----|
B|6------6------6------6-----|6------6------6------6-----|
G|5------5------5------5-----|5------5------5------5-----|
D|---------------------------|---------------------------|
A|---------------------------|---------------------------|
E|---------------------------|---------------------------|
e|15---- 15---- 15---- 15----|15---- 15---- 15---- 15----|
B|---------------------------|---------------------------|
G|12-----12-----12-----12--12|-------12-----12--12-------|
D|---------------------------|---------------------------|
A|---------------------------|---------------------------|
E|---------------------------|---------------------------|
  C                           Dm
e|3----- 3----- 3----- 3-----|5----- 5----- 5----- 5-----|
B|5------5------5------5-----|6------6------6------6-----|
G|5------5------5------5-----|7------7------7------7-----|
D|5------5------5------5-----|7------7------7------7-----|
A|---------------------------|---------------------------|
E|---------------------------|---------------------------|
   It's getting better all the time                    I
e|15---- 15---- 15---- 15----|15--- 15---- 15---- 15-----|
B|---------------------------|---------------------------|
G|12-----12-----12-----12----|12----12-----12--12--------|
D|---------------------------|---------------------------|
A|---------------------------|---------------------------|
E|---------------------------|---------------------------|
  G
e|------ ------ ------ ------|------ ------ ------ ------|
B|3--------------------------|------------------1--------|
G|0--------------------------|---------------------------|
D|0--------------------------|------------0H2------------|
A|---------------------------|---------------------------|
E|3--------------------------|---------------------------|
  used to get mad at my school                        The  
e|15---- ------ ------ ------|------ ------ ------ ------|
B|---------------------------|---------------------------|
G|12-------------------------|---------------------------|
D|---------------------------|---------------------------|
A|---------------------------|---------------------------|
E|---------------------------|---------------------------|
e|------ ------ ------ ------|------ ------ ------ ------|
B|3--------------------------|------------------1--------|
G|0--------------------------|-------------------------0-|
D|0--------------------------|------------0H2----------0-|
A|---------------------------|---------------------------|
E|3--------------------------|---------------------------|
 teachers who taught me weren't cool                 You're
  
e|------ ------ ------ ------|------ ------ ------ ------|
B|---------------------------|---------------------------|
G|0------0------0------0---0-|0------0------0------0---0-|
D|0------0------0------0---0-|0------0------2------2---3-|
A|---------------------------|---------------------------|
E|3------3------3------3-----|3------3------3------3-----|
  holding me down             turning me round
  
e|------ ------ ------ ------|------ ------ ----0- ------|
B|---------------------------|------------0H1---1--------|
G|0------0------0------0-----|0------0----0-----0--------|
D|0------0------2------2-----|0------0----0H2------------|
A|---------------------------|---------------------------|
E|3------3------3------3-----|3------3------3------3-----|
  filling me up with your rules                       I've
  C                           Dm 
e|3----- 3----- 3----- 3-----|5----- 5----- 5----- 5-----|
B|5------5------5------5-----|6------6------6------6-----|
G|5------5------5------5-----|7------7------7------7-----|
D|5------5------5------5-----|7------7------7------7-----|
A|---------------------------|---------------------------|
E|---------------------------|---------------------------|
  got to admit it's getting better            a little better
e|15---- 15---- 15---- 15----|15---- 15---- 15---- 15----|
B|---------------------------|---------------------------|
G|12-----12-----12-----12----|12-----12--12--------12----|
D|---------------------------|---------------------------|
A|---------------------------|---------------------------|
E|---------------------------|---------------------------| 
  Em                           F
e|7----- 7----- 7----- 7-----|-8---- -8---- -8---- -8----|
B|8------8------8------8-----|10-----10-----10-----10----|
G|9------9------9------9-----|10-----10-----10-----10----|
D|9------9------9------9-----|10-----10-----10-----10----|
A|---------------------------|---------------------------|
E|---------------------------|---------------------------|
                all    the time                        I
e|15---- 15---- 15---- 15----|15---- 15---- 15---- 15----|
B|---------------------------|---------------------------|
G|12-----12-----12-----12----|12-----12-----12-----12--12|
D|---------------------------|---------------------------|
A|---------------------------|---------------------------|
E|---------------------------|---------------------------|
e|3----- 3----- 3----- 3-----|5----- 5----- 5----- 5-----|
B|5------5------5------5-----|6------6------6------6-----|
G|5------5------5------5-----|7------7------7------7-----|
D|5------5------5------5-----|7------7------7------7-----|
A|---------------------------|---------------------------|
E|---------------------------|---------------------------|
 have to admit it's getting better            it's getting
e|15---- 15---- 15---- 15----|15---- 15--15 ------ 15----|
B|---------------------------|---------------------------|
G|-------12-----12-----12----|12-----12--12--------12----|
D|---------------------------|---------------------------|
A|---------------------------|---------------------------|
E|---------------------------|---------------------------|
e|7----- 7----- 7----- 7-----|-8---- -8---- -8---- -8----|
B|8------8------8------8-----|10-----10-----10-----10----|
G|9------9------9------9-----|10-----10-----10-----10----|
D|9------9------9------9-----|10-----10-----10-----10----|
A|---------------------------|---------------------------|
E|---------------------------|---------------------------|
 better                since you've been mine
e|15---- 15---- 15---- 15----|15---- 15---- 15---- 15----|
B|---------------------------|---------------------------|
G|12-----12-----12-----12----|12-----12-----12-----12--0-|
D|---------------------------|---------------------------|
A|---------------------------|---------------------------|
E|---------------------------|---------------------------|
  
e|------ ------ ------ ------|------ ------ ------ ------|
B|3--------------------------|------------------1--------|
G|0----------0---------------|---------------------------|
D|0--------------------------|------------0H2------------|
A|---------------------------|---------------------------|
E|3--------------------------|---------------------------|
                                                       Me
e|15---- ------ ------ ------|------ ------ ------ ------|
B|---------------------------|---------------------------|
G|12-------------------------|---------------------------|
D|---------------------------|---------------------------|
A|---------------------------|---------------------------|
E|---------------------------|---------------------------|
  
e|------ ------ ------ ------|------ ------ ------ ------|
B|0------0------1------1-----|0------0----0H1---1--------|
G|0------0------0------0-----|0------0----0-----0--------|
D|0------0------2------2-----|0------0----0H2---2--------|
A|---------------------------|---------------------------|
E|3------3------3------3-----|3------3------3------3-----|  
  used to be angry     young man                       Me
e|------ ------ ------ ------|------ ------ ------ ------|
B|0------0------1------1-----|0------0----0H1---1--------|
G|0------0------0------0-----|0------0----0--------------|
D|0------0------2------2-----|0------0----0H2------------|
A|---------------------------|---------------------------|
E|3------3------3------3-----|3------3------3------3-----|  
  hiding me  head  in  the sand                        You
e|------ ------ ------ ------|------ ------ ------ ------|
B|0------0------1------1-----|0------0------1------1-----|
G|0------0------0------0-----|0------0------0------0-----|
D|0------0------2------2-----|0------0------2------2-----|
A|---------------------------|---------------------------|
E|3------3------3------3-----|3------3------3------3-----|
  gave me the word         I  finally heard            I'm
e|------ ------ ------ ------|------ ------ ------ ------|
B|0------0----0H1---1--------|0------0-------------------|
G|0------0----0-----0--------|0------0----------5--------|
D|0------0----0H2---2--------|0------0----------5--------|   
A|---------------------------|------------5H7------7----|
E|3------3------3------3-----|3------3-------------------|
  doing the best  that  I  can                         I've
e|3----- 3----- 3----- 3-----|5----- 5----- 5----- 5-----|
B|5------5------5------5-----|6------6------6------6-----|
G|5------5------5------5-----|7------7------7------7-----|
D|5------5------5------5-----|7------7------7------7-----|
A|---------------------------|---------------------------|
E|---------------------------|---------------------------|
  got to admit it's getting better            a little better 
e|15---- 15---- 15---- 15----|15---- 15--15 ------ 15----|
B|---------------------------|---------------------------|
G|12-----12-----12-----12----|12-----12--12--------12----|
D|---------------------------|---------------------------|
A|---------------------------|---------------------------|
E|---------------------------|---------------------------|
 
e|7----- 7----- 7----- 7-----|-8---- -8---- -8---- -8----|
B|8------8------8------8-----|10-----10-----10-----10----|
G|9------9------9------9-----|10-----10-----10-----10----|
D|9------9------9------9-----|10-----10-----10-----10----|
A|---------------------------|---------------------------|
E|---------------------------|---------------------------|
                all    the time                        I
e|15---- 15---- 15---- 15----|15---- 15---- 15---- 15----|
B|---------------------------|---------------------------|
G|12-----12-----12-----12----|12-----12-----12-----12--12|
D|---------------------------|---------------------------|
A|---------------------------|---------------------------|
E|---------------------------|---------------------------|
e|3----- 3----- 3----- 3-----|5----- 5----- 5----- 5-----|
B|5------5------5------5-----|6------6------6------6-----|
G|5------5------5------5-----|7------7------7------7-----|
D|5------5------5------5-----|7------7------7------7-----|
A|---------------------------|---------------------------|
E|---------------------------|---------------------------|
 have to admit it's getting better            it's getting
e|15---- 15---- 15---- 15----|15---- 15---- 15---- 15----|
B|---------------------------|---------------------------|
G|-------12-----12-----12--12|-------12-----12--12-------|
D|---------------------------|---------------------------|
A|---------------------------|---------------------------|
E|---------------------------|---------------------------|
e|7----- 7----- 7----- 7-----|-8---- -8---- -8---- -8----|
B|8------8------8------8-----|10-----10-----10-----10----|
G|9------9------9------9-----|10-----10-----10-----10----|
D|9------9------9------9-----|10-----10-----10-----10----|
A|---------------------------|---------------------------|
E|---------------------------|---------------------------|
 better                since you've been mine
e|15---- 15---- 15---- 15----|15---- 15---- 15---- 15----|
B|---------------------------|---------------------------|
G|12-----12-----12-----12----|12-----12-----12-----12--12|
D|---------------------------|---------------------------|
A|---------------------------|---------------------------|
E|---------------------------|---------------------------|
e|-8---- -8---- -8---- -8----|-8---- -8---- -8---- -8----|
B|10-----10-----10-----10----|10-----10-----10-----10----|
G|10-----10-----10-----10----|10-----10-----10-----10----|
D|10-----10-----10-----10----|10-----10-----10-----10----|
A|---------------------------|---------------------------|
E|---------------------------|---------------------------|
  Getting       so     much   better        all    the time 
e|15---- 15---- 15---- 15----|15---- 15---- 15---- 15----|
B|---------------------------|---------------------------|
G|12-----12-----12-----12--12|-------12-----12-----12----|
D|---------------------------|---------------------------|
A|---------------------------|---------------------------|
E|---------------------------|---------------------------|
e|3----- 3----- 3----- 3-----|5----- 5----- 5----- 5-----|
B|5------5------5------5-----|6------6------6------6-----|
G|5------5------5------5-----|7------7------7------7-----|
D|5------5------5------5-----|7------7------7------7-----|
A|---------------------------|---------------------------|
E|---------------------------|---------------------------|
   it's getting better all the time
e|15---- 15---- 15---- 15----|15---- 15---- 15---- 15----|
B|---------------------------|---------------------------|
G|12-----12-----12-----12--12|-------12-----12--12-------|
D|---------------------------|---------------------------|
A|---------------------------|---------------------------|
E|---------------------------|---------------------------|
e|7----- 7----- 7----- 7-----|-8---- -8---- -8---- -8----|
B|8------8------8------8-----|10-----10-----10-----10----|
G|9------9------9------9-----|10-----10-----10-----10----|
D|9------9------9------9-----|10-----10-----10-----10----|
A|---------------------------|---------------------------|
E|---------------------------|---------------------------|
  better         better       better
e|15---- 15---- 15---- 15----|15---- 15---- 15---- 15----|
B|---------------------------|---------------------------|
G|12-----12-----12-----12----|12-----12-----12-----12----|
D|---------------------------|---------------------------|
A|---------------------------|---------------------------|
E|---------------------------|---------------------------|
e|3----- 3----- 3----- 3-----|5----- 5----- 5----- 5-----|
B|5------5------5------5-----|6------6------6------6-----|
G|5------5------5------5-----|7------7------7------7-----|
D|5------5------5------5-----|7------7------7------7-----|
A|---------------------------|---------------------------|
E|---------------------------|---------------------------|
   it's getting better all the time
e|15---- 15---- 15---- 15----|15---- 15---- 15---- 15----|
B|---------------------------|---------------------------|
G|12-----12-----12-----12----|12-----12--12--------12----|
D|---------------------------|---------------------------|
A|---------------------------|---------------------------|
E|---------------------------|---------------------------|
e|7----- 7----- 7----- 7-----|-8---- -8---- -8---- -8----|
B|8------8------8------8-----|10-----10-----10-----10----|
G|9------9------9------9-----|10-----10-----10-----10----|
D|9------9------9------9-----|10-----10-----10-----10----|
A|---------------------------|---------------------------|
E|---------------------------|---------------------------|
  better         better       better
e|15---- 15---- 15---- 15----|15---- 15---- 15---- 15----|
B|---------------------------|---------------------------|
G|12-----12-----12-----12----|12-----12-----12-----12----|
D|---------------------------|---------------------------|
A|---------------------------|---------------------------|
E|---------------------------|---------------------------|
  
e|------ ------ ------ ------|------ ------ ------ ------|
B|3--------------------------|---------------------------|
G|0--------------------------|---------------------------|
D|0--------------------------|---------------------------|
A|---------------------------|---------------------------|
E|3--------------------------|---------------------------|
                                                       I    
e|15---- ------ ------ ------|------ ------ ------ ------|
B|---------------------------|---------------------------|
G|12-------------------------|---------------------------|
D|---------------------------|---------------------------|
A|---------------------------|---------------------------|
E|---------------------------|---------------------------|
e|------ ------ ------ ------|------ ------ ------ ------|
B|3--------------------------|---------------------------|
G|0--------------------------|---------------------------|
D|0--------------------------|---------------------------|
A|---------------------------|---------------------------|
E|3--------------------------|---------------------------|
  used to be cruel  to  my woman     I  beat  her  and kept 
e|------ ------ ------ ------|------ ------ ------ ------|
B|---------------------------|---------------------------|
G|---------------------------|0------------------------0-|
D|---------------------------|0------------------------0-|
A|---------------------------|---------------------------|
E|---------------------------|3--------------------------|
     her apart  from   the things that she loved
  G                           G             C
e|------ ------ ------ ------|------ ------ ------ ------|
B|-----------1---------------|0------0------1------1-----|
G|0---0------0------2--------|0------0------0------0-----|
D|0---0-------------0--------|0------0------2------2-----|
A|---------------------------|---------------------------|
E|3------3------3------3-----|3------3------3------3-----|
                              Man I was mean but I'm changing 
  G             C             G             C
e|------ ------ ------ ------|------ ------ ------ ------|
B|0------0------1------1-----|0------0------1------1-----|
G|0------0------0------0-----|0------0------0------0-----|
D|0------0------2------2-----|0------0------2------2-----|
A|---------------------------|---------------------------|
E|3------3------3------3-----|3------3------3------3-----|
         my scene   and I'm doing    the best that  I can
  G
e|------ ------ ------ ------|
B|0------0-------------------|
G|0------0----------5--------|
D|0------0----------5--------|  
A|------------5H7------7----|
E|3------3-------------------|
  C                           Dm
e|3----- 3----- 3----- 3-----|5----- 5----- 5----- 5-----|
B|5------5------5------5-----|6------6------6------6-----|
G|5------5------5------5-----|7------7------7------7-----|
D|5------5------5------5-----|7------7------7------7-----|
A|---------------------------|---------------------------|
E|---------------------------|---------------------------|
      I admit it's getting better              a little better
e|15---- 15---- 15---- 15----|15---- 15--15 ----15 15----|
B|---------------------------|---------------------------|
G|12-----12-----12-----12----|12-----12--12-----12-12----|
D|---------------------------|---------------------------|
A|---------------------------|---------------------------|
E|---------------------------|---------------------------|
  Em                           F
e|7----- 7----- 7----- 7-----|-8---- -8---- -8---- -8----|
B|8------8------8------8-----|10-----10-----10-----10----|
G|9------9------9------9-----|10-----10-----10-----10----|
D|9------9------9------9-----|10-----10-----10-----10----|
A|---------------------------|---------------------------|
E|---------------------------|---------------------------|
                all    the  time                       Yes
e|15---- 15---- 15---- 15----|15---- 15---- 15---- 15----|
B|---------------------------|---------------------------|
G|12-----12-----12-----12----|12-----12-----12-----12----|
D|---------------------------|---------------------------|
A|---------------------------|---------------------------|
E|---------------------------|---------------------------|
e|3----- 3----- 3----- 3-----|5----- 5----- 5----- 5-----|
B|5------5------5------5-----|6------6------6------6-----|
G|5------5------5------5-----|7------7------7------7-----|
D|5------5------5------5-----|7------7------7------7-----|
A|---------------------------|---------------------------|
E|---------------------------|---------------------------|
    I admit it's getting better              it's getting 
e|15---- 15---- 15---- 15----|15---- 15---- 15---- 15----|
B|---------------------------|---------------------------|
G|12-----12-----12-----12----|12-----12-----12-----12--12|
D|---------------------------|---------------------------|
A|---------------------------|---------------------------|
E|---------------------------|---------------------------|
e|7----- 7----- 7----- 7-----|-8---- -8---- -8---- -8----|
B|8------8------8------8-----|10-----10-----10-----10----|
G|9------9------9------9-----|10-----10-----10-----10----|
D|9------9------9------9-----|10-----10-----10-----10----|
A|---------------------------|---------------------------|
E|---------------------------|---------------------------|
better                since you've   been mine
e|15---- 15---- 15---- 15----|15---- 15---- 15---- 15----|
B|---------------------------|---------------------------|
G|12-----12-----12-----12----|12-----12-----12-----12--12|
D|---------------------------|---------------------------|
A|---------------------------|---------------------------|
E|---------------------------|---------------------------|
e|-8---- -8---- -8---- -8----|-8---- -8---- -8---- -8----|
B|10-----10-----10-----10----|10-----10-----10-----10----|
G|10-----10-----10-----10----|10-----10-----10-----10----|
D|10-----10-----10-----10----|10-----10-----10-----10----|
A|---------------------------|---------------------------|
E|---------------------------|---------------------------|
  Getting       so     much   better        all    the time  
e|15---- 15---- 15---- 15----|15---- 15---- 15---- 15----|
B|---------------------------|---------------------------|
G|12-----12-----12-----12--12|----12--------12-----12----|
D|---------------------------|---------------------------|
A|---------------------------|---------------------------|
E|---------------------------|---------------------------|
e|3----- 3----- 3----- 3-----|5----- 5----- 5----- 5-----|
B|5------5------5------5-----|6------6------6------6-----|
G|5------5------5------5-----|7------7------7------7-----|
D|5------5------5------5-----|7------7------7------7-----|
A|---------------------------|---------------------------|
E|---------------------------|---------------------------|
   it's getting better all the time
e|15---- 15---- 15---- 15----|15---- 15---- 15---- 15--15|
B|---------------------------|---------------------------|
G|12-----12-----12-----12--12|-------12-----12-----12--12|
D|---------------------------|---------------------------|
A|---------------------------|---------------------------|
E|---------------------------|---------------------------|
e|7----- 7----- 7----- 7-----|-8---- -8---- -8---- -8----|
B|8------8------8------8-----|10-----10-----10-----10----|
G|9------9------9------9-----|10-----10-----10-----10----|
D|9------9------9------9-----|10-----10-----10-----10----|
A|---------------------------|---------------------------|
E|---------------------------|---------------------------|
  better        better        better
e|15---- 15---- 15---- 15----|15---- 15---- 15---- 15----|
B|---------------------------|---------------------------|
G|12-----12-----12-----12--12|-------12-----12-----12--12|
D|---------------------------|---------------------------|
A|---------------------------|---------------------------|
E|---------------------------|---------------------------|
e|3----- 3----- 3----- 3-----|5----- 5----- 5----- 5-----|
B|5------5------5------5-----|6------6------6------6-----|
G|5------5------5------5-----|7------7------7------7-----|
D|5------5------5------5-----|7------7------7------7-----|
A|---------------------------|---------------------------|
E|---------------------------|---------------------------|
   it's getting better all the time
e|15---- 15---- 15---- 15----|15---- 15---- 15---- 15----|
B|---------------------------|---------------------------|
G|12-----12-----12-----12--12|-------12-----12--12-------|
D|---------------------------|---------------------------|
A|---------------------------|---------------------------|
E|---------------------------|---------------------------|
e|7----- 7----- 7----- 7-----|-8---- -8---- -8---- -8----|
B|8------8------8------8-----|10-----10-----10-----10----|
G|9------9------9------9-----|10-----10-----10-----10----|
D|9------9------9------9-----|10-----10-----10-----10----|
A|---------------------------|---------------------------|
E|---------------------------|---------------------------|
  better        better        better
e|15---- 15---- 15---- 15----|15---- 15---- 15---- 15----|
B|---------------------------|---------------------------|
G|12-----12-----12-----12--12|-------12-----12-----12--12|
D|---------------------------|---------------------------|
A|---------------------------|---------------------------|
E|---------------------------|---------------------------|
e|-8---- -8---- -8---- -8----|-8---- -8---- -8---- -8----|
B|10-----10-----10-----10----|10-----10-----10-----10----|
G|10-----10-----10-----10----|10-----10-----10-----10----|
D|10-----10-----10-----10----|10-----10-----10-----10----|
A|---------------------------|---------------------------|
E|---------------------------|---------------------------|
  Getting       so     much   better        all    the time
e|15---- 15---- 15---- 15----|15---- 15---- 15---- 15----|
B|---------------------------|---------------------------|
G|-------12--12--------12--12|-------12--12--------12----|
D|---------------------------|---------------------------|
A|---------------------------|---------------------------|
E|---------------------------|---------------------------|
  
e|15---- 15---- 15---- 15----|15---- 15---- 15---- 15----|
B|---------------------------|---------------------------|
G|12-----12-----12-----12----|12--12--------12--12-------|
D|---------------------------|---------------------------|
A|---------------------------|---------------------------|
E|---------------------------|---------------------------|
  .........................Fade..........................
 
e|15---- 15---- 15---- 15----|15---- 15---- 15---- 15----|
B|---------------------------|---------------------------|
G|12-----12--12--------12----|12--12--------12-----12--12|
D|---------------------------|---------------------------|
A|---------------------------|---------------------------|
E|---------------------------|---------------------------|
  .......................................................
  
e|15---- 15---- 15---- 15----|15---- 15---- 15---- 15----|
B|---------------------------|---------------------------|
G|12-----12--12--------12----|12-----12-----12-----12----|
D|---------------------------|---------------------------|
A|---------------------------|---------------------------|
E|---------------------------|---------------------------|
  .......................................................
  
        B  Bend
        R  Release
        /  slide up
          slide down
        H  hammer-on
        P  pull-off
        ~  vibrato
        +  harmonic
        x  Mute note
        . - play note like a dot in standard notation
        ^ - ties two notes together

Beatles - Getting Better аккорды

guitar chord C
guitar chord Dm
guitar chord Em
guitar chord F
guitar chord G

Разбор Beatles - Getting Better на гитаре

1 Звезда2 Звезды3 Звезды4 Звезды5 Звезд (Пока оценок нет)
Загрузка...