Beatles – Because

шрифт
Print this page
guitar chord A
guitar chord G#
guitar chord A7
guitar chord C#m
guitar chord F#
2020-02-10 Beatles – Because
Intro:
  C#m
e|-------------------------------|-------------------------------|
B|------------5------------------|------------5------------------|
G|--------6-------6--------------|--------6-------6--------------|
D|----6---------------6-------6--|----6---------------6-------6--|
A|4-----------------------7------|4-----------------------7------|
E|-------------------------------|-------------------------------|

  Eb-5/7                          G#
e|-------------------------------|-------------------------------|
B|------------4------------------|------------4------------------|
G|--------6-------6--------------|--------5-------5--------------|
D|----7---------------7-------4--|----6---------------6-------6--|
A|6-----------------------7------|6------------------------------|
E|-------------------------------|------------------------4------|

  A                               C#m
e|-------------------------------|-------------------------------|
B|------------5------------------|------------5------------------|
G|--------6-------6--------------|--------6-------6--------------|
D|----7---------------7-------7--|----6---------------6-------6--|
A|0-----------------------7------|4-----------------------4------|
E|-------------------------------|-------------------------------|

  A7                              A13
e|-------------------------------|-------------------------------|
B|------------8------------------|------------7------------------|
G|--------6-------6--------------|--------6----------------------|
D|----5---------------5-------5--|----5--------------------------|
A|0-----------------------7------|0------------------------------|
E|-------------------------------|-------------------------------|

  D                               D-5             Dm-5
e|-------------------------------|-------------------------------|
B|------------7------------------|------------7---6--------------|
G|--------7-------7--------------|--------7----------------------|
D|----7---------------7-------7--|----6--------------------------|
A|5-----------------------9------|5------------------------------|
E|-------------------------------|-------------------------------|
  Aaaaaaaaaaaaaaaaaaaaaaaaaaaaaaahhhhhhhhhhhhhhhhhhhh     Be.....

  C#m    
e|-------------------------------|-------------------------------|
B|------------5------------------|------------5------------------|
G|--------6-------6--------------|--------6-------6--------------|
D|----6---------------6-------6--|----6---------------6-------6--|
A|4-----------------------7------|4-----------------------7------|
E|-------------------------------|-------------------------------|
  cause       the world   is      round       it  turns   me

  Eb-5/7                          G#
e|-------------------------------|-------------------------------|
B|------------4------------------|------------4------------------|
G|--------6-------6--------------|--------5-------5--------------|
D|----7---------------7-------4--|----6---------------6-------6--|
A|6-----------------------7------|6-----------------------6------|
E|-------------------------------|-------------------------------|
  on                                                      Be.....

  A                               C#m
e|-------------------------------|-------------------------------|
B|------------5------------------|------------5------------------|
G|--------6-------6--------------|--------6-------6--------------|
D|----7---------------7-------7--|----6---------------6-------6--|
A|0-----------------------7------|4-----------------------4------|
E|-------------------------------|-------------------------------|
  cause                       the world                   is

  A7                              A13
e|-------------------------------|-------------------------------|
B|------------8------------------|------------7------------------|
G|--------6-------6--------------|--------6----------------------|
D|----5---------------5-------5--|----5--------------------------|
A|0-----------------------7------|0------------------------------|
E|-------------------------------|-------------------------------|
  round

  D                               D-5             Dm-5
e|-------------------------------|-------------------------------|
B|------------7------------------|------------7---6--------------|
G|--------7-------7--------------|--------7----------------------|
D|----7---------------7-------7--|----6--------------------------|
A|5-----------------------9------|5------------------------------|
E|-------------------------------|-------------------------------|
  Aaaaaaaaaaaaaaaaaaaaaaaaaahhhhhhhhhhhhhhhhhhhhhhh       Be.....

  C#m
e|-------------------------------|-------------------------------|
B|------------5------------------|------------5------------------|
G|--------6-------6--------------|--------6-------6--------------|
D|----6---------------6-------6--|----6---------------6-------6--|
A|4-----------------------7------|4-----------------------7------|
E|-------------------------------|-------------------------------|
  cause       the wind    is      high        it blows    my

  Eb-5/7                          G#
e|-------------------------------|-------------------------------|
B|------------4------------------|------------4------------------|
G|--------6-------6--------------|--------5-------5--------------|
D|----7---------------7-------4--|----6---------------6-------6--|
A|6-----------------------7------|6-----------------------6------|
E|-------------------------------|-------------------------------|
  mind                                                        Be..

  A                               C#m
e|-------------------------------|-------------------------------|
B|------------5------------------|------------5------------------|
G|--------6-------6--------------|--------6-------6--------------|
D|----7---------------7-------7--|----6---------------6-------6--|
A|7-----------------------7------|4-----------------------4------|
E|-------------------------------|-------------------------------|
  cause                       the wind                    is

  A7                              A13
e|-------------------------------|-------------------------------|
B|------------8------------------|------------7------------------|
G|--------6-------6--------------|--------6----------------------|
D|----5---------------5-------5--|----5--------------------------|
A|0-----------------------7------|0------------------------------|
E|-------------------------------|-------------------------------|
  high

  D                               D-5             Dm-5
e|-------------------------------|-------------------------------|
B|------------7------------------|------------7---6--------------|
G|--------7-------7--------------|--------7----------------------|
D|----7---------------7-------7--|----6--------------------------|
A|5-----------------------9------|5------------------------------|
E|-------------------------------|-------------------------------|
  Aaaaaaaaaaaaaaaaaaaaaaahhhhhhhhhhhhhhhh love is all     love is

  F#
e|-------------------------------|-------------------------------|
B|------------2------------------|------------2------------------|
G|--------3-------3--------------|--------3-------3--------------|
D|----4---------------4-------4--|----4---------------4-------4--|
A|------------------------4------|------------------------6------|
E|2------------------------------|2------------------------------|
  new

  G#
e|-------------------------------|----------------4--------------|
B|------------4------------------|------------4------------------|
G|--------5-------5--------------|--------5----------------------|
D|----6---------------4-------4--|----6--------------------------|
A|------------------------7------|-------------------------------|
E|4------------------------------|4------------------------------|
                                                          Be.....

  C#m
e|-------------------------------|-------------------------------|
B|------------5------------------|------------5------------------|
G|--------6-------6--------------|--------6-------6--------------|
D|----6---------------6-------6--|----6---------------6-------6--|
A|4-----------------------7------|4-----------------------7------|
E|-------------------------------|-------------------------------|
  cause       the sky     is      blue        it  makes   me

  Eb-5/7                          G#
e|-------------------------------|-------------------------------|
B|------------4------------------|------------4------------------|
G|--------6-------6--------------|--------5-------5--------------|
D|----7---------------7-------4--|----6---------------6-------6--|
A|6-----------------------7------|6-----------------------6------|
E|-------------------------------|-------------------------------|
  cry                                                         Be..

  A                               C#m
e|-------------------------------|-------------------------------|
B|------------5------------------|------------5------------------|
G|--------6-------6--------------|--------6-------6--------------|
D|----7---------------7-------7--|----6---------------6-------6--|
A|0-----------------------7------|4-----------------------4------|
E|-------------------------------|-------------------------------|
  cause                       the sky                     is

  A7                              A13
e|-------------------------------|-------------------------------|
B|------------8------------------|------------7------------------|
G|--------6-------6--------------|--------6----------------------|
D|----5---------------5-------5--|----5--------------------------|
A|0-----------------------7------|0------------------------------|
E|-------------------------------|-------------------------------|
  blue

  D                               D-5             Dm-5
e|-------------------------------|-------------------------------|
B|------------7------------------|------------7---6--------------|
G|--------7-------7--------------|--------7----------------------|
D|----7---------------7-------7--|----6--------------------------|
A|5-----------------------9------|5------------------------------|
E|-------------------------------|-------------------------------|
  Aaaaaaaaaaaaaaaaaaaaaaaaaaaaaaaaaaaaaaaaaahhhhhhhhhhhhhhhhhhhhh

  C#m
e|-------------------------------|-------------------------------|
B|------------5------------------|------------5------------------|
G|--------6-------6--------------|--------6-------6--------------|
D|----6---------------6-------6--|----6---------------6-------6--|
A|4-----------------------7------|4-----------------------7------|
E|-------------------------------|-------------------------------|
  hhhhhhhhhhhhhh

e|12----------9-----------12-----|----------------9-------12-----|
B|----------------9--------------|9-----------9------------------|
G|-------------------------------|-------------------------------|
D|-------------------------------|-------------------------------|
A|-------------------------------|-------------------------------|
E|-------------------------------|-------------------------------|

  Eb-5/7                          G#
e|-------------------------------|-------------------------------|
B|------------4------------------|------------4------------------|
G|--------6-------6--------------|--------5-------5--------------|
D|----7---------------7-------4--|----6---------------6-------6--|
A|6-----------------------7------|6------------------------------|
E|-------------------------------|------------------------4------|
  Aaaaaaaaaaaaaaaaaaaaaaaaaaaaaaaaaaaaaahhhhhhhhhhhhhhhhhhhhhhhhh

e|-------------------------------|-------------------------------|
B|10-----------------------------|9------------------------------|
G|-------------------------------|-------------------------------|
D|-------------------------------|-------------------------------|
A|-------------------------------|-------------------------------|
E|-------------------------------|-------------------------------|

  A                               C#m
e|-------------------------------|-------------------------------|
B|------------5------------------|------------5------------------|
G|--------6-------6--------------|--------6-------6--------------|
D|----7---------------7-------7--|----6---------------6-------6--|
A|0-----------------------7------|4-----------------------4------|
E|-------------------------------|-------------------------------|
  hhhhhhhhhhhhh

e|12-----------------------------|12-----------------------------|
B|----------------------------14-|----------------------------14-|
G|-------------------------------|-------------------------------|
D|-------------------------------|-------------------------------|
A|-------------------------------|-------------------------------|
E|-------------------------------|-------------------------------|

  A7                              A13
e|-------------------------------|-------------------------------|
B|------------8------------------|------------7------------------|
G|--------6-------6--------------|--------6----------------------|
D|----5---------------5-------5--|----5--------------------------|
A|0-----------------------7------|0------------------------------|
E|-------------------------------|-------------------------------|
  Aaaaaaaaaaaaaaaaaaaaaaahhhhhhhhhhhhhhhhhh

e|15-----------------------------|14-----------------------------|
B|-------------------------------|-------------------------------|
G|-------------------------------|-------------------------------|
D|-------------------------------|-------------------------------|
A|-------------------------------|-------------------------------|
E|-------------------------------|-------------------------------|

  D                               D-5             Dm-5
e|-------------------------------|-------------------------------|
B|------------7------------------|------------7---6--------------|
G|--------7-------7--------------|--------7----------------------|
D|----7---------------7-------7--|----6--------------------------|
A|5-----------------------9------|5------------------------------|
E|-------------------------------|-------------------------------|
  Aaaaaaaaaaaaaaaaaaaaaaaaahhhhhhhhhhhhhhhhhhhhhhhh

e|14-----------------------------|13-----------------------------|
B|-------------------------------|-------------------------------|
G|-------------------------------|-------------------------------|
D|-------------------------------|-------------------------------|
A|-------------------------------|-------------------------------|
E|-------------------------------|-------------------------------|

Beatles - Because аккорды

guitar chord A
guitar chord G#
guitar chord A7
guitar chord C#m
guitar chord F#

Разбор Beatles - Because на гитаре

1 Звезда2 Звезды3 Звезды4 Звезды5 Звезд (Пока оценок нет)
Загрузка...

Добавить комментарий

Ваш адрес email не будет опубликован. Обязательные поля помечены *