Beatles – Baby’s in Black

2020-02-10 Beatles – Baby’s in Black
  A               E  
Oh, dear what can I do? 
    D  
Baby’s in black and 
   E  
I’m feeling blue 
        A        E       A  
Tell me Oh, what can I do? 
 A  
She thinks of him 
         A7             D  
And so she dresses in black, 
                        A  
And though he’ll never come back 
   E                 A  
She’s dressed in black. 
 A               E  
Oh, dear what can I do? 
    D  
Baby’s in black and 
   E  
I’m feeling blue 
        A        E       A  
Tell me Oh, what can I do? 
 A  
I think of her 
         A7              D  
But she thinks only of him 
                    A  
And though it’s only a whim 
 E            A  
She thinks of him 
 
e|----------------------------------------------------------------------------------------9---7---| 
B|---------------------------------------------------------7---5-------- 5---3---3/5---5---5------| 
G|--------6----4^----2---------------4^----2------------6---6--------4---4------------------------| 
D|--------------------------4----2----------------4/6------------2/4------------------------------| 
A|------------------------------------------------------------------------------------------------| 
E|------------------------------------------------------------------------------------------------| 
 
e|-----------------------------| 
B|-----------------------------| 
G|--------4^---4---2--------2--| 
D|-----------------------4-----| 
A|-----------------------------| 
E|-----------------------------| 
 
 
 F#m           B7                 D   E  
Oh, how long will it take till she sees 
                A  
The mistake she has made 
      E  
Dear what can I do? 
   D  
Baby’s in black and 
   E  
I’m feeling blue 
        A        D      A  
Tell me Oh, what can I do? 
 
 F#m           B7                  D   E  
Oh, how long will it take till she sees 
                A  
The mistake she has made 
      E  
Dear what can I do? 
   D  
Baby’s in black and 
   E  
I’m feeling blue 
        A        D       A  
Tell me Oh, what can I do? 
 A  
She thinks of him 
            D  
And so she dresses in black, 
                        E  
And though he’ll never come back 
                  A  
She’s dressed in black. 
 A               E  
Oh, dear what can I do? 
    D  
Baby’s in black and 
   E  
I’m feeling blue 
        A        E      A  
Tell me Oh, what can I do?

Beatles - Baby's in Black аккорды

guitar chord A
guitar chord D
guitar chord E
guitar chord A7
guitar chord B7
guitar chord F#m
1 Звезда2 Звезды3 Звезды4 Звезды5 Звезд (Пока оценок нет)
Загрузка...