Авторские песни – Фанк (Robin’s Book)

2019-11-07 Авторские песни – Фанк (Robin’s Book)
Вступление: F#m7 A#9 (x21222) Bm7 C#m7

e|------------------------------------------------------
B|-------2----------------------------------------------
G|-2-4-------------2------------------------------------
D|-----------4-6-------0-2---4-------------2-4---6------
A|-------------------------------0-2---4----------------
E|-----------------------------------------0-2---4------

 F#m7                  Bm7
Чувствую, разлил меня дождь,
   Amaj7         Am6 (x04555)
Океаном, по бульварам.
По городам-дам поймали ритм
Капли долгие с громом
Так пара-парарам по мозгам.
Моросит в форточку, заливает дом
И на крыше замкнула провода вода.
И хочется света, искупаться бы в нем голышом,
Но это лето скоро сотрет меня.

        Dmaj7       Bm7         Amaj7           C#m7
Только ты, ты, ты, ты слушаешь фанк и танцуешь рядом.
                      Dmaj7   Bm7
И стало быть у меня все хорошо.
                      C#m7     Amaj7
И стало быть у меня все как надо.

e|-----------------------
B|-----------------------
G|-----------------------
D|-----------4-6---7-----
A|-0-2---4---------------
E|-----------2-4---5-----

Чувствую, я скоро замкнусь в себе
И заболею дождем,
И пропаду насовсем.
Небо раскисло. На дереве повисла
Моя тоска, прочь уходи
На раз, два, три.
Брызги машин на костюмах и на платьях,
Нецензурно перебирает фразы толпа.
И хочется света, искупаться бы в нем голышом,
Но это лето скоро сотрет меня.

Только ты, ты, ты, ты слушаешь фанк и танцуешь рядом.
И стало быть у меня все хорошо.
И стало быть у меня все как надо.

[Проигрыш]

Чувствую, я скоро сойду с ума.
Поторопился уйти, но опоздал не спеша.
Видимо, переполнен до края и разбит
Июль спит, хрипит, храпит.
Я на старте, я на старте пока,
Ленивым котом упала на палас тоска. 
И хочется света, искупаться бы в нем голышом,
Но это лето скоро сотрет меня.

Припев | 2 раза
Пара-па-па-пайя | 2 раза

Авторские песни - Фанк (Robin's Book) аккорды

guitar chord Bm7

Разбор Авторские песни - Фанк (Robin's Book) на гитаре

1 Звезда2 Звезды3 Звезды4 Звезды5 Звезд (Пока оценок нет)
Загрузка...