Avril Lavigne – You Never Satisfy Me

шрифт
Print this page
2021-05-02 Avril Lavigne – You Never Satisfy Me
Вступление: C#m-B-F#-B (x2)
C#m                               H
Excuse me sir, do I have your attention
F#                                                H
There's something if you don't mind I'd like to mention
C#m                            H             F#                H
So open those ears, sit your butt down and shut your mouth Oh
I'm aware that it's hard for you to do that
All I ask is lay down, put your feet up
Now soak in, pay attention, learn a lesson loud and clear
Припев:
C#m                 C#%
Hey, you're a dirty liar
    H                  F#
You wronged me out for something I thought was right
  C#m                C#%
I wanted to be left alone
    H            F#
Not shown around like your golden prize
A             G#
Oh, I looked around
  A                             G#
I look what happened, you found out
                  C#m
You never satisfy me
Post Chorus: Acoutic Guitar Solo
e|----------------------------
B|-4/5-7-4-5-4--------------
G|---------------4/6-6--------
D|----------------------9p8---
A|----------------------------
E|----------------------------
Never trusted anyone in the first place                                   
You turned me up, your disgusting anyway
Hear that music, crank it up
Is there something familiar in the singers voice
Turn it down, now listen to me
What made you think you were my authority                           
I'm awake, finally, Now I'm able to move on (just gotta tell the truth)
Припев
Bridge:
A                             
Now do these word stick to you, hope they do
C#m
Think about it, think about it
A                                                           G#
Stick to you like superglue, keep you from the things you do Oh
Guitar 1: C#m-B-F#-B (x2)
Guitar 2: Solo (x means the number of times plucked)
e|-9(x3)-9----------------------------------------------12(x3)-11-
B|------------------------------------------------11-11-----------
G|-----------------8-9-9h11p9-8-8h9p8----------8h9----------------
D|----------11(x3)--------------------9-8-9-11--------------------
A|----------------------------------------------------------------
E|----------------------------------------------------------------
e|------------------
B|-14-12-12/11------
G|---------------11-
D|------------------
A|------------------
E|------------------

Avril Lavigne - You Never Satisfy Me аккорды

guitar chord A
guitar chord H
guitar chord G#
guitar chord C#m
guitar chord F#

Разбор Avril Lavigne - You Never Satisfy Me на гитаре

1 Звезда2 Звезды3 Звезды4 Звезды5 Звезд (Пока оценок нет)
Загрузка...

Добавить комментарий

Ваш адрес email не будет опубликован. Обязательные поля помечены *