Alai Oli – Грибок стопы

шрифт
Print this page
2021-04-21 Alai Oli – Грибок стопы
Intro: D Bm G A

Бас по-разному играть можно, примерно так: 
5---------4--5-----5--5--4---------------------------
6---5--7---------------------7--7-7--5--3----0-3-4-5-

Для тех, кто хочет играть одновременно и бас и ритм: 
                 D                     Bm 
1----------------5-5-------------------2-2--- 
2----------------7-7-------------------3-3--- 
3----------------7-7-------------------4-4--- 
4----------------7-7-------------------4-4--- 
5----------4--5--5-5-----5--5--4--2--2-2-----
6--5--7---------х----------------------х-----

                 G                       A 
1----------------3-3---------------------5-5- 
2----------------3-3---------------------5-5- 
3----------------4-4---------------------6-6- 
4----------------5-5---------------------7-7- 
5---2--2--0------5-5---------------------7-7- 
6-------------3--3-3---3(0)--3--4--5--5-5----

Alai Oli - Грибок стопы аккорды

guitar chord A
guitar chord Bm
guitar chord D
guitar chord G

Разбор Alai Oli - Грибок стопы на гитаре

1 Звезда2 Звезды3 Звезды4 Звезды5 Звезд (Пока оценок нет)
Загрузка...

Добавить комментарий

Ваш адрес email не будет опубликован. Обязательные поля помечены *